Attiley - High School Heroics Chords & Tabs

 

High School Heroics Chords & Tabs

Attiley Chords & Tabs

Version: 1 Type: Bass Tab 0 ratings
1 star 2 stars 3 stars 4 stars 5 stars
comments

High School Heroics Bass Tab

   
#---------------------------------PLEASE NOTE----------------------------------#
#This file is the author's own work and represents their interpretation of the #
#song. You may only use this file for private study, scholarship, or research. #
#------------------------------------------------------------------------------#
#------------Created with Taborama Tab Creator-----www.taborama.com------------#
#------------------------------------------------------------------------------#

Title: High School Heroics
Artist: aTTiley
Album: TBA

Instrument: 4 String Bass

Tabbed by: Joe Hill (iomegaman72@msn.com)

Tuning: Standard (E A D G)

Great Song
[ Tab from: http://www.guitartabs.cc/tabs/a/attiley/high_school_heroics_btab.html ]
Intro:
G|----6----6----6----6----6----6----6----6---------------------------||
D|-44---44-----------------------------------------------------------||
A|-----------44---44--------------------------x6---------------------||
E|---------------------44---44---66---66-----------------------------||
Chorus:
G|-------------------------------------------------------------------||
D|-44444444----------------------------------------------------------||
A|----------44444444--------------------x4---------------------------||
E|-------------------44444444-66666666-------------------------------||
Verse:
G|-------------------------------------------------------------------||
D|-44444444----------------------------------------------------------||
A|----------44444444--------------------x4---------------------------||
E|-------------------44444444-66666666-------------------------------||
Bridge:
G|----6----6----6----6----6----6----6----6---------------------------||
D|-44---44-----------------------------------------------------------||
A|-----------44---44------------------------x4-----------------------||
E|---------------------44---44---66---66-----------------------------||

Lyrics:

High school heroics... no one can save us now
High school heroics... way past the point of ressurection
High school heroics... we won't step down
High school heroics... don't want to be on the news station

We don't want your pity
We just want to live
We won't take this sitting
We've got nothing to give
You've misjudged us
You were wrong
You're filled with disgust
You waited too long

High school heroics... who's the hero going to be
High school heroics... we'll sit back we'll wait and see
High school heroics... who are we trying to save
High school heroics... us our friends that's all we have

We're sick of being rated
We hate the critics
We're not all about being "sedated"
We're sick of your shit
You don't know us inside
You, it's time you leave
You think we want free rides
You don't know, we want to make it on our own

We just want to live
You've misjudged us
We're sick of being rated
You don't know us inside
We don't want your pity
You were wrong
We just want to live
You've misjudged us!
Comments