Attiley - 3rd Period Crush Chords & Tabs

 

3rd Period Crush Chords & Tabs

Attiley Chords & Tabs

Version: 1 Type: Bass Tab 0 ratings
1 star 2 stars 3 stars 4 stars 5 stars
comments

3rd Period Crush Bass Tab

   
Title: 3rd Period Crush
Artist: aTTiley
Album: TBA

Instrument: 4 String Bass

Tabbed by: Joe Hill (iomegaman72@msn.com)

Tuning: Standard (E A D G)

/=Slide Up
\=Slide Down
~=Let Ring

Intro Pt. 2 (Where Bass and Drums come in):
G|-------------------------------------------------------------------||
D|-------------------------------------------------------------------||
A|---------------------66-6-66-6-88-8-88-8---------------------------||
E|-66-6-66-6-66-6-66-6-----------------------------------------------||

Intro Pt. 3:

G|-------------------------------------------------------------------||
D|-------------------------------------------------------------------||
A|--------666666-888888-101010\999\8~~-------------------------------||
E|-666666------------------------------------------------------------||

Verse:

G|-------------------------------------------------------------------||
D|-------------------------------------------------------------------||
A|--------666666-888888-666666---------------------------------------||
E|-666666------------------------------------------------------------||

Chorus:
[ Tab from: http://www.guitartabs.cc/tabs/a/attiley/3rd_period_crush_btab.html ]
G|-------------------------------------------------------------------||
D|-----------------8~~------10~~-------8~~---------------------------||
A|-------8~~-6-6-6-6~~-8-8-8-8~~-6-6-6-6~~---------------------------||
E|-6-6-6-6~~---------------------------------------------------------||

Bass Riff (Just for Dane)

G|-------------------------------------------------------------------||
D|-------1~~/3~~-5-3-1~~---------------------------------------------||
A|-1-1-1-------------------------------------------------------------||
E|-------------------------------------------------------------------||

Bridge (Tenative)

G|-------------------------------------------------------------------||
D|-------------------------------------------------------------------||
A|-----------6-6-6-0---8-8-8-0---6-6-6-0-----------------------------||
E|-6-6-6-0-----------------------------------------------------------||

Chorus Pt. 2 (I forgot this up there)

G|------------------------------T------------------------------------||
D|------------------------------H------------------------------------||
A|--------666666-888888-666666--E------10--8-------------------------||
E|-666666-----------------------N-6-----------666666-----------------||

Play the THEN change at the end of the chorus.
Comments