Attaque 77 - Dame Dame Dame Chords & Tabs

 

Dame Dame Dame Chords & Tabs

Attaque 77 Chords & Tabs

Version: 1 Type: Tab 0 ratings
1 star 2 stars 3 stars 4 stars 5 stars
comments

Dame Dame Dame Tab

   
Attaque 77
Dame dame dame
Otras canciones
                                             
e|-0---11111---| 

El ritmo es complicado..Ojo!

   Dm  Gm   A
e|-1----3------|
B|-3----3---3--|
G|-2----3---3--|  preferentemente en quintas
D|------5---3--|  
A|------5------|
E|------3------|

Dm                           Gm
Hoy en mi ventana brilla el sol
        Dm
mi corazón

Un pequeño Riff       
e|----------------1--1p0h1------------| 
B|-------------3----------------------|
G|----------3-------------------------|
D|-------5----------------------------|
A|-------5----------------------------|
E|-------3----------------------------|
                        
se pone triste contemplando la ciudad
A            Dm
por que te vas

El verso 2 es igual al 1, al final de este viene otro riff
que viene antes del coro

e|--------------| 
B|--3--3h6p3-3-3|
G|--------------|
D|--------------|
A|--------------|
E|--------------|

El Coro es mucho mas facil...aunque el ritmo es un poco complicado
[ Tab from: http://www.guitartabs.cc/tabs/a/attaque_77/dame_dame_dame_tab.html ]
   Bb   F   C
e|-1----1------|
B|-3----1---1--|
G|-3----2------|preferentemente en quintas
D|-3----3---2--|
A|-1----3---3--|
E|-1----1------|

  Bb                                       Dm
Todas las promesas de mi amor se irán contigo
          F             Dm    C
lo olvidaras, lo olvidaras
  Bb                                         Dm 
y en mi habitación te llorare igual que un niño
            F
por que te vas,
A           Dm
por que te vas

Los versos siguientes son iguales que el 1 y el 2 respectivamente

El punteo del final es el siguiente

e|----------------------------|
B|----------------------------|
G|---3-2-0--3h5p3-2-----------| ESTA PARTE SE REPITE 3 VECES
D|----------------------------|
A|----------------------------|
E|----------------------------|

e|-------------------------------| 
B|-------------------------------|
G|---3h5p3--0-2---2/7-77-55--3-2-|
D|-------------------------------|
A|-------------------------------|
E|-------------------------------|
Comments