Attaque 77 - Como Billy The Kid Chords & Tabs

 

Como Billy The Kid Chords & Tabs

Attaque 77 Chords & Tabs

Version: 1 Type: Chords 0 ratings
1 star 2 stars 3 stars 4 stars 5 stars
comments

Como Billy The Kid Chords

   
Como Billy The Kid - Attaque 77

INTRO:
(es algo parecido, no estoy seguro)

e|----------------------------------------|
B|----------------------------------------|
G|----------------------------------------|
D|----5----5-5-5---5-5-5-----7b-(8)--5----|x4
A|----5----5-5-5---5-5-5------------------|
E|----3----3-3-3---3-3-3------------------|
      G5
e|----------------------------------------|
B|----------------------------------------|
G|----5----5-5-5---5-5-5------------------|
D|----5----5-5-5---5-5-5-----7b-(8)--5----|x2
A|----3----3-3-3---3-3-3------------------|
E|----------------------------------------|
      C5
e|---------------------------------------------------|
B|---------------------------------------------------|
G|----7----7-7-7---7-7-7-------------------7-7-7-7---|
D|----7----7-7-7---7-7-7-----7b-(8)--5-----7-7-7-7---|x1
A|----5----5-5-5---5-5-5-------------------5-5-5-5---|
E|---------------------------------------------------|
      D5

VERSO/VERSE
[ Tab from: http://www.guitartabs.cc/tabs/a/attaque_77/como_billy_the_kid_crd.html ]
G5   D5        C5        G5
Cerrare ya mis ojos otra ves
E5           C5      G5      D5
Igual que un niņo quisiera soņar
       C5           G5               B5      E5
Que puedo en el tiempo viajar a un antiguo lugar
C5        G5      D5
Al viejo oeste quizas

G5   D5        C5           G5
Cruzare los desiertos sin temer
E5            C5        G5     D5
Pues junto al viento yo cabalgare
   C5            G5           B5      E5
Y por mas que la ley quiera hacerme caer
 C5      G5           D5   ------ C5        G5      
Voy a llegar hasta el fin... como Billy the kid

G5   D5         C5         G5
Llegare junto a otros como yo
E5        C5        G5      D5
Y en cada pueblo yo me llevare
     C5          G5        B5       E5
Lo que siempre soņe y que nunca pude tener
C5       G5            D5
Con mi revolver lo robare

     E5                 C5      
Quizas solo es un sueņo mas
     E5                  C5    D5
Y tal ves se convieta en realidad
C5       G5         D5
Si no me matan de atras
-------C5         G5  
Como a Billy the kid


No se cual es el estribillo ni nada de eso, pero no importa, la letra esta completa, y no se van a perder

ANARQUIA TOTAL!!! juanes_punk@hotmail.com
Comments