Atreyu - Your Private War Chords & Tabs

 

Your Private War Chords & Tabs

Atreyu Chords & Tabs

Version: 1 Type: Tab

Your Private War Tab

   
-------------------------------------------------------------------------------
			     Your Private War - Atreyu
-------------------------------------------------------------------------------
Tabbed by:BlakMetlMayhm
Email:barbariandude2005@yahoo.com

Tuning:CGCFAD
   This is all that I have for now...It might not sound right in a 
couple of places, but this is my first tab. My next tab will be much
better than this one... This is a great song!
D|---------------------------------------------|
A|--------0/2-------0/2-------0/55555\22-------|
F|--------0/2-------0/2-------0/55555\22-------|Repeat
C|--------0/2-------0/2-------0/55555\22-------|  x4
G|---------------------------------------------|
C|-0000000----000000----000000-----------------|
[ Tab from: http://www.guitartabs.cc/tabs/a/atreyu/your_private_war_tab.html ]
D|-------------------------------------|
A|-0/2-0/2-----------------------------|
F|-0/2-0/2-----------Bass Plays--------|Repeat
C|-0/2-0/2-----------------------------|  x2
G|-------------------------------------|
C|-------------------------------------|

D|---------------------------------------------|
A|--------------------------------0/2-0/2------|
F|--------------------------------0/2-0/2------|Repeat 
C|--------------------------------0/2-0/2------| x4(don't play end      
G|---------------------------------------------|    on 4th time)
C|-000000---000000---000000---0000-------------|

| /  slide up
| \  slide down
| h  hammer-on
| p  pull-off
| ~  vibrato
| +  harmonic
| x  Mute note
===============================================================================