Atreyu - You Give Love A Bad Name Chords & Tabs

 

You Give Love A Bad Name Chords & Tabs

Atreyu Chords & Tabs

Version: 1 Type: Bass Tab 0 ratings
1 star 2 stars 3 stars 4 stars 5 stars
comments

You Give Love A Bad Name Bass Tab

   
YOU GIVE LOVE A BAD NAME (Bassline)
As recorded by Atreyu
(From the 2004 Album THE CURSE (IMPORT VERSION))

Gtr I (C G C F) 

 Intro
  Moderate Rock Q=131
 4/4
  Gtr I
|---------|---------|---------|-----||
|---------|---------|---------|-----||
|---------|---------|---------|-----||
|---------|---------|---------|-----||


   Guitar Solo
||------------------|---------------|------------------|------------------||
||o-----------------|---------------|------------------|-----------------o||
||o-3---------------|--------3-3-3--|----------------6-|-6-6-3-3-3-3-3-3-o||
||-----5-6-(6)-6-6--|-8-8-8---------|-6--6-8-(8)-8-8---|------------------||


|------------------|-----------------||
|------------------|-----------------||
|------------------|-----------------||
|-6--6-8-(8)-8-8-8-|-8-8-8-8-8-8-8-8-||


 Pre-Verse
  Faster Q=134
|-----------------|----------------|-----------------|-----------------||
|-----------------|----------------|-----------------|-----------------||
|-3-3-3-3-3-3-3-3-|-3-3-3-3-3-3-3--|-3-3-3-3-3-3-3-3-|-3-3-3-3-3-3-3---||
|-----------------|----------------|-----------------|-----------------||


   Verse
||------------------|----------------|-----------------|-----------------||
||o-----------------|----------------|-----------------|---------1-1----o||
||o-3-3-3-3-3-3-3-3-|-3-3-3-3-3-3-3--|-3-3-3-3-3-3-3-3-|-3-3-3-3-----3--o||
||------------------|----------------|-----------------|-----------------||


 Pre-Chorus
  $
|-----------------|-----------------|-----------------|-----------------|
|-----------------|-----------------|-----------------|-----------------|
|-----------------|-----------------|-3-3-3-3-3-3-3-3-|-3-3-3-3-3-3-3---|
|-3-3-3-3-3-3-3-3-|-3-3-3-3-3-3-3-3-|-----------------|-----------------|


|-----------------|-----------------|-----------------|------------||
|-----------------|-----------------|-----------------|------------||
|-----------------|-----------------|-----------------|------------||
|-3-3-3-3-3-3-3-3-|-3-3-3-3-3-3-3-3-|-5-5-5-5-5-5-5-5-|-7-7-7-7----||


   Chorus
                                                                 To Coda
||------------------|-----------------|-----------------|------------------||
||o-----------------|-----------------|-----------------|-----------------o||
||o-3-3-3-----------|---------3-3-3-3-|---------------6-|-6-6-3-3-3-3-3-3-o||
||--------6-6-6-6-6-|-8-8-8-8---------|-6-6-6-8-8-8-8---|------------------||


                  6/4
|----------------|--------||
|----------------|--------||
|----------------|--------||
|-6-6-6-8-(8)----|-(8)----||


 Pre-Verse
 4/4
|-----------------|----------------|-----------------|-------------||
|-----------------|----------------|-----------------|-------------||
|-3-3-3-3-3-3-3-3-|-3-3-3-3-3-3-3--|-3-3-3-3-3-3-3-3-|-3-3-3-3-----||
|-----------------|----------------|-----------------|-------------||


   Verse
||-------------------------|---------------------|
||o------------------------|---------------------|
||o-3-3-3-3-(3)-3-3-(3)----|-3-3-3-3-(3)-3-3-----|
||-------------------------|---------------------|


                                   D.S. al Coda
|------------------------|--------------------------||
|------------------------|-----------------1-1-----o||
|-3-3-3-3-(3)-3-3-(3)----|-3-3-3-3-(3)-3-3-----3---o||
|------------------------|--------------------------||

[ Tab from: http://www.guitartabs.cc/tabs/a/atreyu/you_give_love_a_bad_name_btab.html ]
  &
|----------------|--------||
|----------------|--------||
|----------------|--------||
|-6-6-6-8-(8)----|-(8)----||


 Guitar Solo
|-----------------|-----------------|-----------------|------------------|
|-----------------|-----------------|-----------------|------------------|
|-3-3-3-----------|---------3-3-3-3-|---------------6-|-6-6-3-3-3-3-3-3--|
|-------6-6-6-6-6-|-8-8-8-8---------|-6-6-6-8-8-8-8---|------------------|


|-----------------|-----------------|----------------|
|-----------------|-----------------|----------------|
|-3-3-3-----------|---------3-3-3-3-|----------------|
|-------6-6-6-6-6-|-8-8-8-8---------|-6-6-6-8-(8)----|


|-----------------|-----------------||
|-----------------|-----------------||
|-----------------|-----------------||
|-8-8-8-8-8-8-8-8-|-8-8-8-8-8-8-8-8-||


 Guitar Break
|-----||
|-----||
|-----||
|-----||


   Chorus
||------------------|-----------------|-----------------|------------------||
||o-----------------|-----------------|-----------------|-----------------o||
||o-3-3-3-----------|---------3-3-3-3-|---------------6-|-6-6-3-3-3-3-3-3-o||
||--------6-6-6-6-6-|-8-8-8-8---------|-6-6-6-8-8-8-8---|------------------||


   Breakdown
||----------------------|-----------------------|
||o---------------------|-----------------------|
||o-3-3-3-3-(3)-3-3-----|-----------------------|
||----------------------|-6-6-6-6-(6)-6-6-8--8--|


|---------------------|-------------------------||
|---------------------|------------------------o||
|---------------------|-----------------6--3---o||
|-6-6-6-6-(6)-6-6-----|-8-8-8-8-(8)-8-8---------||


 Outro
|------------------------|------------------------|
|------------------------|------------------------|
|-3-3-3-3-(3)-3-3-(3)----|-3-3-3-3-(3)-3-3-(3)----|
|------------------------|------------------------|


|------------------------|--------------------------|
|------------------------|-----------------1-1------|
|-3-3-3-3-(3)-3-3-(3)----|-3-3-3-3-(3)-3-3-----3----|
|------------------------|--------------------------|


|------------------------|------------------------|
|------------------------|------------------------|
|-3-3-3-3-(3)-3-3-(3)----|-3-3-3-3-(3)-3-3-(3)----|
|------------------------|------------------------|


|------------------------|---------------------*|
|------------------------|---------------------*|
|-3-3-3-3-(3)-3-3-(3)----|-3-3-3-3-(3)-3-3-----*|
|------------------------|---------------------*|



Tablature Legend
----------------
 h   - hammer-on
 p   - pull-off
 b   - bend
 pb  - pre-bend
 r   - bend release (if no number after the r, then release immediately)
 /\  - slide into or out of (from/to "nowhere")
 s   - legato slide
 S   - shift slide
 - natural harmonic
[n]  - artificial harmonic
n(n) - tapped harmonic
 ~   - vibrato
 tr  - trill
 T   - tap
 TP  - trem. picking
 PM  - palm muting
\n/  - tremolo bar dip; n = amount to dip
 \n  - tremolo bar down
 n/  - tremolo bar up
/n\  - tremolo bar inverted dip
 =   - hold bend; also acts as connecting device for hammers/pulls
 <> - volume swell (louder/softer)
 x   - on rhythm slash represents muted slash
 o   - on rhythm slash represents single note slash

Misc Legend
-----------
 |  - bar
||  - double bar
||o - repeat start
o|| - repeat end
*|  - double bar (ending)
 :  - bar (freetime)
 $  - Segno
 &  - Coda
Tempo markers -  = BPM(8/16=s8/s16), where s8 = swing 8ths, s16 = swing 16ths
Comments