Atreyu - You Eclipsed By Me Chords & Tabs

 

You Eclipsed By Me Chords & Tabs

Atreyu Chords & Tabs

Version: 3 Type: Tab 0 ratings
1 star 2 stars 3 stars 4 stars 5 stars
comments

You Eclipsed By Me Tab

   
YOU ECLIPSED BY ME
As recorded by Atreyu
(From the 2004 Album THE CURSE
Words and Music by Atreyu
Arranged by Atreyu

Gtr I (C G C F A D) - 'Untitled'
Gtr II (C G C F A D) - 'Untitled'
Gtr III (C G C F A D) - 'Untitled'

   Intro
    Fast Rock Q=155
    D5    N.C.  D5                  N.C.  D5
   4/4
    Gtr I
                PM--------|               PM--------|
||--------------------------|-------------------------|
||o-------------------------|-------------------------|
||--------10-10-------------|-------10-10-------------|
||--0-0-0--x--x-------------|-0-0-0--x--x-------------|
||o-0-0-0--8--8-0-0-0-0-0-0-|-0-0-0--8--8-0-0-0-0-0-0-|
||--0-0-0-------0-0-0-0-0-0-|-0-0-0-------0-0-0-0-0-0-|
|
|   Gtr II
|               PM--------|               PM--------|
||--------------------------|-------------------------|
||o-------------------------|-------------------------|
||--------14-14-------------|-------14-14-------------|
||--0-0-0--x--x-------------|-0-0-0--x--x-------------|
||o-0-0-0-12-12-0-0-0-0-0-0-|-0-0-0-12-12-0-0-0-0-0-0-|
||--0-0-0-------0-0-0-0-0-0-|-0-0-0-------0-0-0-0-0-0-|


  D5    N.C.  D5                  N.C.  D5
              PM--------|               PM--------|
|-------------------------|-------------------------|
|-------------------------|-------------------------|
|--------9--9-------------|--------9--9-------------|
|-0-0-0--x--x-------------|-0-0-0--x--x-------------|
|-0-0-0--7--7-0-0-0-0-0-0-|-0-0-0--7--7-0-0-0-0-0-0-|
|-0-0-0-------0-0-0-0-0-0-|-0-0-0-------0-0-0-0-0-0-|
|
|             PM--------|               PM--------|
|-------------------------|-------------------------|
|-------------------------|-------------------------|
|-------13-13-------------|-------13-13-------------|
|-0-0-0--x--x-------------|-0-0-0--x--x-------------|
|-0-0-0-11-11-0-0-0-0-0-0-|-0-0-0-11-11-0-0-0-0-0-0-|
|-0-0-0-------0-0-0-0-0-0-|-0-0-0-------0-0-0-0-0-0-|


  Bb5   Bbmaj7Bb5                 Bbmaj7Bb5
  Gtrs I, II
              PM--------|               PM--------|
|-------------------------|-------------------------|
|-------------------------|-------------------------|
|-------------------------|-------------------------|
|-8-8-8--8--8-------------|-8-8-8--8--8-------------|
|-8-8-8-12-12-8-8-8-8-8-8-|-8-8-8-12-12-8-8-8-8-8-8-|
|-8-8-8--8--8-8-8-8-8-8-8-|-8-8-8--8--8-8-8-8-8-8-8-|


  G5                      N.C.
            PM------------------------------------------|
|-----------------------|-----------------------------------||
|-----------------------|----------------------------------o||
|-----------------------|-----------------------------------||
|-5-5-5-5-5-------------|-----------------------------------||
|-5-5-5-5-5-5-5-5-5-5-5-|----------------------------------o||
|-5-5-5-5-5-5-5-5-5-5-5-|-5-5-5-5-3-3-3-3-8-8-8-8-8-8-8-8---||


   Verse
    D5
    PM----|     PM------------------|     PM--------|
||--------------------------|--------------------------|
||o-------------------------|--------------------------|
||--------------------------|--------------------------|
||----------0---------------|---------0----------------|
||o-0-0-0-0-0---0-0-0-0-0-0-|-0-0-0-0-0---0-0-0-0-0-0--|
||--0-0-0-0-0---0-0-0-0-0-0-|-0-0-0-0-0---0-0-0-0-0-0--|


  D5                        N.C.    D5      N.C.
                           3/4
  Gtr I
  PM----|     PM--------|           PM----|
|-------------------------|--------------------|
|-------------------------|--------------------|
|-------------------------|--------------------|
|---------0---------------|--------------------|
|-0-0-0-0-0---0-0-0-0-0-0-|---------0-0-0-0-5--|
|-0-0-0-0-0---0-0-0-0-0-0-|-3h5p3p0-0-0-0-0----|
|
| Gtr II
| PM----|     PM--------|           PM----|
|-------------------------|--------------------|
|-------------------------|--------------------|
|-------------------------|--------------------|
|---------0---------------|--------------------|
|-0-0-0-0-0---0-0-0-0-0-0-|---------0-0-0-0-8--|
|-0-0-0-0-0---0-0-0-0-0-0-|-3h5p3p0-0-0-0-0----|


  D5
 4/4
  Gtrs I, II
  PM----|     PM------------------|     PM--------|
|-------------------------|-------------------------|
|-------------------------|-------------------------|
|-------------------------|-------------------------|
|---------0---------------|---------0---------------|
|-0-0-0-0-0---0-0-0-0-0-0-|-0-0-0-0-0---0-0-0-0-0-0-|
|-0-0-0-0-0---0-0-0-0-0-0-|-0-0-0-0-0---0-0-0-0-0-0-|


  1.
  D5                        N.C.    D5      N.C.
                           3/4
  Gtr I
  PM----|     PM--------|           PM----|
|-------------------------|---------------------||
|-------------------------|--------------------o||
|-------------------------|---------------------||
|---------0---------------|---------------------||
|-0-0-0-0-0---0-0-0-0-0-0-|---------0-0-0-0-3--o||
|-0-0-0-0-0---0-0-0-0-0-0-|-3h5p3p0-0-0-0-0-----||
|
| Gtr II
| PM----|     PM--------|           PM----|
|-------------------------|---------------------||
|-------------------------|--------------------o||
|-------------------------|---------------------||
|---------0---------------|---------------------||
|-0-0-0-0-0---0-0-0-0-0-0-|---------0-0-0-0-7--o||
|-0-0-0-0-0---0-0-0-0-0-0-|-3h5p3p0-0-0-0-0-----||


  2.
  D5                        N.C.    D5      A5    D5
 4/4
  PM----|     PM--------|           PM----|
|-------------------------|--------------------------||
|-------------------------|--------------------------||
|-------------------------|--------------------------||
|---------0---------------|-----------------2---2h3--||
|-0-0-0-0-0---0-0-0-0-0-0-|---------0-0-0-0---0------||
|-0-0-0-0-0---0-0-0-0-0-0-|-3h5p3p0-0-0-0-0----------||
|
| PM----|     PM--------|           PM----|
|-------------------------|--------------------------||
|-------------------------|--------------------------||
|-------------------------|--------------------------||
|---------0---------------|-----------------7-7-7-0--||
|-0-0-0-0-0---0-0-0-0-0-0-|---------0-0-0-0-7-7-7-0--||
|-0-0-0-0-0---0-0-0-0-0-0-|-3h5p3p0-0-0-0-0-7-7-7-0--||


 Chorus
  D5              C5                          G5
|--------------------|--------------------------|
|--------------------|--------------------------|
|--------------------|------------------------5-|
|-(3)---3---2h3----2-|--(2)-----3-----3p=2----x-|
|-----0---0-----0----|-------0-----0--------0-3-|
|--------------------|--------------------------|
|
|--------------------|--------------------------|
|--------------------|--------------------------|
|--------------------|--------------------------|
|-(0)-0-0-0-0-0-0-10-|-(10)-10-10-10-10-10-10-5-|
|-(0)-0-0-0-0-0-0-10-|-(10)-10-10-10-10-10-10-5-|
|-(0)-0-0-0-0-0-0-10-|-(10)-10-10-10-10-10-10-5-|


                  Bb5                         D5
|--------------------|--------------------------|
|--------------------|--------------------------|
|-(5)---5---5s7------|--------------------------|
|-------x---x-----/5-|-(5)-3-(3)-/7-(7)-3-(3)-3-|
|-(3)-0-3-0-3s5-0----|--------------------------|
|--------------------|--------------------------|
|
|--------------------|--------------------------|
|--------------------|--------------------------|
|--------------------|--------------------------|
|-(5)-5-5-5-5-5-5--8-|-(8)-8--8---8--8--8--8--0-|
|-(5)-5-5-5-5-5-5--8-|-(8)-8--8---8--8--8--8--0-|
|-(5)-5-5-5-5-5-5--8-|-(8)-8--8---8--8--8--8--0-|


  D5              C5                          G/B
  Gtr I
|--------------------|---------------------------|
|--------------------|---------------------------|
|--------------------|-------------------------5-|
|-(3)---3---2h3----2-|--(2)-----3-----3p=2-----x-|
|-----0---0-----0----|-------0-----0--------0--3-|
|--------------------|---------------------------|
|
| Gtr II
|--------------------|---------------------------|
|--------------------|---------------------------|
|--------------------|---------------------------|
|-(0)-0-0-0-0-0-0-10-|-(10)-10-10-10-10-10-10--9-|
|-(0)-0-0-0-0-0-0-10-|-(10)-10-10-10-10-10-10-10-|
|-(0)-0-0-0-0-0-0-10-|-(10)-10-10-10-10-10-10--9-|
|
| Gtr III
|--------------------|---------------------------|
|--------------------|---------------------------|
|--------------------|---------------------------|
|--------------------|---------------------------|
|--------------------|---------------------------|
|--------------------|---------------------------|


                         Bb5                         D5
|---------------------------|---------------------------|
|---------------------------|---------------------------|
|--(5)-----5-----5s=7-------|------------------------10-|
|----------x-----x-------/5-|-(5)-3-(3)-/7-(7)-3-(3)--x-|
|--(3)--0--3--0--3s=5--0----|-------------------------8-|
|---------------------------|---------------------------|
|
|---------------------------|---------------------------|
|---------------------------|---------------------------|
|---------------------------|-------------------------7-|
|--(9)--9--9--9--9--9--9--8-|-(8)-8--8---8--8--8--8---x-|
|-(10)-10-10-10-10-10-10--8-|-(8)-8--8---8--8--8--8---5-|
|--(9)--9--9--9--9--9--9--8-|-(8)-8--8---8--8--8--8-----|
|
|---------------------------|---------------------------|
|---------------------------|---------------------------|
|---------------------------|---------------------------|
|---------------------------|-------------------------0-|
|---------------------------|-------------------------0-|
|---------------------------|-------------------------0-|


  D5                     C5                          G5
|---------------------------|---------------------------|
|---------------------------|---------------------------|
|-(10)-10-10-10-10-10-10--9-|--(9)--9--9--9--9--9--9-10-|
|-------x--x--x--x--x--x--x-|-------x--x--x--x--x--x--x-|
|--(8)--8--8--8--8--8--8--7-|--(7)--7--7--7--7--7--7--8-|
|---------------------------|---------------------------|
|
|---------------------------|---------------------------|
|---------------------------|---------------------------|
|--(7)--7--7--7--7--7--7--5-|--(5)--5--5--5--5--5--5--7-|
|-------x--x--x--x--x--x--x-|-------x--x--x--x--x--x--x-|
|--(5)--5--5--5--5--5--5--3-|--(3)--3--3--3--3--3--3--5-|
|---------------------------|---------------------------|
|
|---------------------------|---------------------------|
|---------------------------|---------------------------|
|---------------------------|---------------------------|
|--(0)--0--0--0--0--0--0-10-|-(10)-10-10-10-10-10-10--5-|
|--(0)--0--0--0--0--0--0-10-|-(10)-10-10-10-10-10-10--5-|
|--(0)--0--0--0--0--0--0-10-|-(10)-10-10-10-10-10-10--5-|


                         Bb5                         D5
|---------------------------|---------------------------|
|---------------------------|---------------------------|
|-(10)-10-10-10-10-10-10-10-|-(10)-10-10-10-10-10-10-10-|
|-------x--x--x--x--x--x--x-|-------x--x--x--x--x--x--x-|
|--(8)--8--8--8--8--8--8--8-|--(8)--8--8--8--8--8--8--8-|
|---------------------------|---------------------------|
|
|---------------------------|---------------------------|
|---------------------------|---------------------------|
|--(7)--7--7--7--7--7--7--7-|--(7)--7--7--7--7--7--7--7-|
|-------x--x--x--x--x--x--x-|-------x--x--x--x--x--x--x-|
|--(5)--5--5--5--5--5--5--5-|--(5)--5--5--5--5--5--5--5-|
|---------------------------|---------------------------|
|
|---------------------------|---------------------------|
|---------------------------|---------------------------|
|---------------------------|---------------------------|
|--(5)--5--5--5--5--5--5--8-|--(8)--8--8--8--8--8--8--0-|
|--(5)--5--5--5--5--5--5--8-|--(8)--8--8--8--8--8--8--0-|
|--(5)--5--5--5--5--5--5--8-|--(8)--8--8--8--8--8--8--0-|


  D5                     C5                          G/B
|---------------------------|---------------------------|
|---------------------------|---------------------------|
|-(10)-10-10-10-10-10-10--9-|--(9)--9--9--9--9--9--9-12-|
|-------x--x--x--x--x--x--x-|-------x--x--x--x--x--x--x-|
|--(8)--8--8--8--8--8--8--7-|--(7)--7--7--7--7--7--7-10-|
|---------------------------|---------------------------|
|
|---------------------------|---------------------------|
|---------------------------|---------------------------|
|--(7)--7--7--7--7--7--7--5-|--(5)--5--5--5--5--5--5--4-|
|-------x--x--x--x--x--x--x-|-------x--x--x--x--x--x--x-|
|--(5)--5--5--5--5--5--5--3-|--(3)--3--3--3--3--3--3--2-|
|---------------------------|---------------------------|
|
|---------------------------|---------------------------|
|---------------------------|---------------------------|
|---------------------------|---------------------------|
|--(0)--0--0--0--0--0--0-10-|-(10)-10-10-10-10-10-10--9-|
|--(0)--0--0--0--0--0--0-10-|-(10)-10-10-10-10-10-10-10-|
|--(0)--0--0--0--0--0--0-10-|-(10)-10-10-10-10-10-10--9-|


                         Bb5
|---------------------------|---------------------------||
|---------------------------|---------------------------||
|-(12)-12-12-12-12-12-12-10-|-(10)-10-10-10-10-10-10-10-||
|-------x--x--x--x--x--x--x-|-------x--x--x--x--x--x--x-||
|-(10)-10-10-10-10-10-10--8-|--(8)--8--8--8--8--8--8--8-||
|---------------------------|---------------------------||
|
|---------------------------|---------------------------||
|---------------------------|---------------------------||
|--(4)--4--4--4--4--4--4--7-|--(7)--7--7--7--7--7--7--7-||
|-------x--x--x--x--x--x--x-|-------x--x--x--x--x--x--x-||
|--(2)--2--2--2--2--2--2--5-|--(5)--5--5--5--5--5--5--5-||
|---------------------------|---------------------------||
|
|---------------------------|---------------------------||
|---------------------------|---------------------------||
|---------------------------|---------------------------||
|--(9)--9--9--9--9--9--9--8-|--(8)--8--8--8--8--8--8--8-||
|-(10)-10-10-10-10-10-10--8-|--(8)--8--8--8--8--8--8--8-||
|--(9)--9--9--9--9--9--9--8-|--(8)--8--8--8--8--8--8--8-||


 Pre-Verse
  D5    N.C.  D5                  N.C.  D5
  Gtr I
              PM--------|               PM--------|
|-------------------------|-------------------------|
|-------------------------|-------------------------|
|-------10-10-------------|-------10-10-------------|
|-0-0-0--x--x-------------|-0-0-0--x--x-------------|
|-0-0-0--8--8-0-0-0-0-0-0-|-0-0-0--8--8-0-0-0-0-0-0-|
|-0-0-0-------0-0-0-0-0-0-|-0-0-0-------0-0-0-0-0-0-|
|
| Gtr II
|             PM--------|               PM--------|
|-------------------------|-------------------------|
|-------------------------|-------------------------|
|-------14-14-------------|-------14-14-------------|
|-0-0-0--x--x-------------|-0-0-0--x--x-------------|
|-0-0-0-12-12-0-0-0-0-0-0-|-0-0-0-12-12-0-0-0-0-0-0-|
|-0-0-0-------0-0-0-0-0-0-|-0-0-0-------0-0-0-0-0-0-|


  D5    N.C.  D5                  N.C.  D5
              PM--------|               PM--------|
|-------------------------|-------------------------|
|-------------------------|-------------------------|
|--------9--9-------------|--------9--9-------------|
|-0-0-0--x--x-------------|-0-0-0--x--x-------------|
|-0-0-0--7--7-0-0-0-0-0-0-|-0-0-0--7--7-0-0-0-0-0-0-|
|-0-0-0-------0-0-0-0-0-0-|-0-0-0-------0-0-0-0-0-0-|
|
|             PM--------|               PM--------|
|-------------------------|-------------------------|
|-------------------------|-------------------------|
|-------13-13-------------|-------13-13-------------|
|-0-0-0--x--x-------------|-0-0-0--x--x-------------|
|-0-0-0-11-11-0-0-0-0-0-0-|-0-0-0-11-11-0-0-0-0-0-0-|
|-0-0-0-------0-0-0-0-0-0-|-0-0-0-------0-0-0-0-0-0-|


  Bb5   Bbmaj7Bb5                 Bbmaj7Bb5
  Gtrs I, II
              PM--------|               PM--------|
|-------------------------|-------------------------|
|-------------------------|-------------------------|
|-------------------------|-------------------------|
|-8-8-8--8--8-------------|-8-8-8--8--8-------------|
|-8-8-8-12-12-8-8-8-8-8-8-|-8-8-8-12-12-8-8-8-8-8-8-|
|-8-8-8--8--8-8-8-8-8-8-8-|-8-8-8--8--8-8-8-8-8-8-8-|


  G5                      N.C.
            PM------------------------------------------|
|-----------------------|----------------------------------||
|-----------------------|----------------------------------||
|-----------------------|----------------------------------||
|-5-5-5-5-5-------------|----------------------------------||
|-5-5-5-5-5-5-5-5-5-5-5-|----------------------------------||
|-5-5-5-5-5-5-5-5-5-5-5-|-5-5-5-5-3-3-3-3-8-8-8-8-8-8-8-8--||


 Verse
  D5
  PM----|     PM------------------|     PM--------|
|-------------------------|-------------------------|
|-------------------------|-------------------------|
|-------------------------|-------------------------|
|---------0---------------|---------0---------------|
|-0-0-0-0-0---0-0-0-0-0-0-|-0-0-0-0-0---0-0-0-0-0-0-|
|-0-0-0-0-0---0-0-0-0-0-0-|-0-0-0-0-0---0-0-0-0-0-0-|


  D5                        N.C.    D5      N.C.
                           3/4
  Gtr I
  PM----|     PM--------|           PM----|
|-------------------------|----------------------|
|-------------------------|----------------------|
|-------------------------|----------------------|
|---------0---------------|----------------------|
|-0-0-0-0-0---0-0-0-0-0-0-|---------0-0-0-0--5---|
|-0-0-0-0-0---0-0-0-0-0-0-|-3h5p3p0-0-0-0-0------|
|
| Gtr II
| PM----|     PM--------|           PM----|
|-------------------------|----------------------|
|-------------------------|----------------------|
|-------------------------|----------------------|
|---------0---------------|----------------------|
|-0-0-0-0-0---0-0-0-0-0-0-|---------0-0-0-0-[8]--|
|-0-0-0-0-0---0-0-0-0-0-0-|-3h5p3p0-0-0-0-0------|


  D5
 4/4
  Gtrs I, II
  PM----|     PM------------------|     PM--------|
|-------------------------|-------------------------|
|-------------------------|-------------------------|
|-------------------------|-------------------------|
|---------0---------------|---------0---------------|
|-0-0-0-0-0---0-0-0-0-0-0-|-0-0-0-0-0---0-0-0-0-0-0-|
|-0-0-0-0-0---0-0-0-0-0-0-|-0-0-0-0-0---0-0-0-0-0-0-|


  D5                        N.C.    D5      N.C.
                           3/4
  Gtr I
  PM----|     PM--------|           PM----|
|-------------------------|--------------------|
|-------------------------|--------------------|
|-------------------------|--------------------|
|---------0---------------|--------------------|
|-0-0-0-0-0---0-0-0-0-0-0-|---------0-0-0-0-3--|
|-0-0-0-0-0---0-0-0-0-0-0-|-3h5p3p0-0-0-0-0----|
|
| Gtr II
| PM----|     PM--------|           PM----|
|-------------------------|--------------------|
|-------------------------|--------------------|
|-------------------------|--------------------|
|---------0---------------|--------------------|
|-0-0-0-0-0---0-0-0-0-0-0-|---------0-0-0-0-7--|
|-0-0-0-0-0---0-0-0-0-0-0-|-3h5p3p0-0-0-0-0----|


  D5
 4/4
  Gtrs I, II
  PM----|     PM------------------|     PM--------|
|-------------------------|-------------------------|
|-------------------------|-------------------------|
|-------------------------|-------------------------|
|---------0---------------|---------0---------------|
|-0-0-0-0-0---0-0-0-0-0-0-|-0-0-0-0-0---0-0-0-0-0-0-|
|-0-0-0-0-0---0-0-0-0-0-0-|-0-0-0-0-0---0-0-0-0-0-0-|


  D5                        N.C.    D5      N.C.
  PM----|     PM--------|           PM----|
|-------------------------|---------------------|
|-------------------------|---------------------|
|-------------------------|---------------------|
|---------0---------------|---------------------|
|-0-0-0-0-0---0-0-0-0-0-0-|---------0-0-0-0-----|
|-0-0-0-0-0---0-0-0-0-0-0-|-3h5p3p0-0-0-0-0-----|


  D5
  PM----|     PM------------------|     PM--------|
|-------------------------|-------------------------|
|-------------------------|-------------------------|
|-------------------------|-------------------------|
|---------0---------------|---------0---------------|
|-0-0-0-0-0---0-0-0-0-0-0-|-0-0-0-0-0---0-0-0-0-0-0-|
|-0-0-0-0-0---0-0-0-0-0-0-|-0-0-0-0-0---0-0-0-0-0-0-|


  D5
                                        <
  PM----|     PM------------------|
|-------------------------|----------------||
|-------------------------|----------------||
|-------------------------|----------------||
|---------0---------------|-------------0--||
|-0-0-0-0-0---0-0-0-0-0-0-|-0-0-0-0-----0--||
|-0-0-0-0-0---0-0-0-0-0-0-|-0-0-0-0-----0--||


   Interlude
    Bb5                         B5C5 Db5
    Gtr I
||------------------|-------------------|
||o-----------------|-------------------|
||--7-7-7-7-7-7-7-7-|-7-7-7-7-7-9--9--9-|
||--x-x-x-x-x-x-x-x-|-x-x-x-x-x-x--x--x-|
||o-5-5-5-5-5-5-5-5-|-5-5-5-5-5-7--7--7-|
||------------------|-------------------|
|
|   Gtr II
||------------------|-------------------|
||o-----------------|-------------------|
||--7-7-7-7-7-7-7-7-|-7-7-7-7-7-9--9--9-|
||--x-x-x-x-x-x-x-x-|-x-x-x-x-x-x--x--x-|
||o-5-5-5-5-5-5-5-5-|-5-5-5-5-5-7--7--7-|
||------------------|-------------------|
|
|   Gtr III
||------------------|-------------------|
||o-----------------|-------------------|
||------------------|-------------------|
||--8-8-8-8-8-8-8-8-|-8-8-8-8-8-9-10-11-|
||o-8-8-8-8-8-8-8-8-|-8-8-8-8-8-9-10-11-|
||--8-8-8-8-8-8-8-8-|-8-8-8-8-8-9-10-11-|


  D5
|-------------------------|--------------------------|
|-------------------------|--------------------------|
|-10-10-10-10-10-10-10-14-|-14s12-12s10-10s=9--9s12--|
|--x--x--x--x--x--x--x--x-|--x-----x-----x-----x-----|
|--8--8--8--8--8--8--8-12-|-12s10-10s=8--8s=7--7s10--|
|-------------------------|--------------------------|
|
|-------------------------|--------------------------|
|-------------------------|--------------------------|
|-10-10-10-10-10-10-10-17-|-17s15-15s14-14s12-12s15--|
|--x--x--x--x--x--x--x--x-|--x-----x-----x-----x-----|
|--8--8--8--8--8--8--8-15-|-15s13-13s12-12s10-10s13--|
|-------------------------|--------------------------|
|
|-------------------------|--------------------------|
|-------------------------|--------------------------|
|-------------------------|--------------------------|
|-12-12-12-12-12-12-12-12-|-12-12-12-12-12-12-12-12--|
|-12-12-12-12-12-12-12-12-|-12-12-12-12-12-12-12-12--|
|-12-12-12-12-12-12-12-12-|-12-12-12-12-12-12-12-12--|

[ Tab from: http://www.guitartabs.cc/tabs/a/atreyu/you_eclipsed_by_me_tab_ver_3.html ]
  Bb5                         B5C5 Db5
|-----------------|-------------------|
|-----------------|-------------------|
|-7-7-7-7-7-7-7-7-|-7-7-7-7-7-9--9--9-|
|-x-x-x-x-x-x-x-x-|-x-x-x-x-x-x--x--x-|
|-5-5-5-5-5-5-5-5-|-5-5-5-5-5-7--7--7-|
|-----------------|-------------------|
|
|-----------------|-------------------|
|-----------------|-------------------|
|-7-7-7-7-7-7-7-7-|-7-7-7-7-7-9--9--9-|
|-x-x-x-x-x-x-x-x-|-x-x-x-x-x-x--x--x-|
|-5-5-5-5-5-5-5-5-|-5-5-5-5-5-7--7--7-|
|-----------------|-------------------|
|
|-----------------|-------------------|
|-----------------|-------------------|
|-----------------|-------------------|
|-8-8-8-8-8-8-8-8-|-8-8-8-8-8-9-10-11-|
|-8-8-8-8-8-8-8-8-|-8-8-8-8-8-9-10-11-|
|-8-8-8-8-8-8-8-8-|-8-8-8-8-8-9-10-11-|


  D5
|-------------------------|--------------------------||
|-------------------------|-------------------------o||
|--7--7--7--7--7--7--7-14-|-14s12-12s10-10s=9--9s12--||
|--x--x--x--x--x--x--x--x-|--x-----x-----x-----x-----||
|--5--5--5--5--5--5--5-12-|-12s10-10s=8--8s=7--7s10-o||
|-------------------------|--------------------------||
|
|-------------------------|--------------------------||
|-------------------------|-------------------------o||
|-10-10-10-10-10-10-10-10-|-10s=9--9s=7--7s=5--5s=7--||
|--x--x--x--x--x--x--x--x-|--x-----x-----x-----x-----||
|--8--8--8--8--8--8--8--8-|--8s=7--7s=5--5s=3--3s=5-o||
|-------------------------|--------------------------||
|
|-------------------------|--------------------------||
|-------------------------|-------------------------o||
|-------------------------|--------------------------||
|-12-12-12-12-12-12-12-12-|-12-12-12-12-12-12-12-12--||
|-12-12-12-12-12-12-12-12-|-12-12-12-12-12-12-12-12-o||
|-12-12-12-12-12-12-12-12-|-12-12-12-12-12-12-12-12--||


 Guitar Break
  Slower Q=148
  D5
  PM---------------------------------------------------
|-------------------------|---------------------------|
|-------------------------|---------------------------|
|-------------------------|---------------------------|
|-------------------------|---------------------------|
|-0-0-0-0-0---0-0-0-0-0-0-|--0--0-0-0-0---0-0-0-0-0-0-|
|-0-0-0-0-0---0-0-0-0-0-0-|--0--0-0-0-0---0-0-0-0-0-0-|
|
|-------------------------|---------------------------|
|-------------------------|---------------------------|
|-------------------------|---------------------------|
|-0-----------------------|-(0)-----------------------|
|-0-----------------------|-(0)-----------------------|
|-0-----------------------|-(0)-----------------------|


                              N.C.      D5      N.C.
 -------------------------|             PM----|
|---------------------------|-------------------------------|
|---------------------------|-------------------------------|
|---------------------------|-------------------------------|
|---------------------------|-------------------3b4.5---(3)-|
|--0--0-0-0-0---0-0-0-0-0-0-|-----------0-0-0-0-------------|
|--0--0-0-0-0---0-0-0-0-0-0-|--3h=5p3p0-0-0-0-0-------------|
|
|---------------------------|-------------------------------|
|---------------------------|-------------------------------|
|---------------------------|-------------------------------|
|-(0)-----------------------|-(0)---------------------------|
|-(0)-----------------------|-(0)---------------------------|
|-(0)-----------------------|-(0)---------------------------|


  D5
  PM----|     PM------------------|     PM-----------
|-------------------------|-------------------------|
|-------------------------|-------------------------|
|-------------------------|-------------------------|
|---------0---------------|---------0---------------|
|-0-0-0-0-0---0-0-0-0-0-0-|-0-0-0-0-0---0-0-0-0-0-0-|
|-0-0-0-0-0---0-0-0-0-0-0-|-0-0-0-0-0---0-0-0-0-0-0-|
|
|-------------------------|-------------------------|
|-------------------------|-------------------------|
|-------------------------|-------------------------|
|-0-----------------------|-------------------------|
|-0-----------------------|-------------------------|
|-0-----------------------|-------------------------|


                                       \7___|
 -------|     PM------------------|
|-------------------------|-----------------------||
|-------------------------|-----------------------||
|-------------------------|-----------------------||
|---------0---------------|---------0--0---(0)----||
|-0-0-0-0-0---0-0-0-0-0-0-|-0-0-0-0-0--0---(0)----||
|-0-0-0-0-0---0-0-0-0-0-0-|-0-0-0-0-0--0---(0)----||
|
|                                      \7___|
|-------------------------|-----------------------||
|-------------------------|-----------------------||
|-------------------------|-----------------------||
|-------------------------|------------0---(0)----||
|-------------------------|------------0---(0)----||
|-------------------------|------------0---(0)----||


 Breakdown
  a Tempo Q=155
  D5
  Gtr I
  PM------|   PM--------------------|   PM-----------
|-------------------------|-------------------------|
|-------------------------|-------------------------|
|-------------------------|-------------------------|
|-------------------------|-------------------------|
|-0-0-0-0-0---0-0-0-0-0-0-|-0-0-0-0-0---0-0-0-0-0-0-|
|-0-0-0-0-0---0-0-0-0-0-0-|-0-0-0-0-0---0-0-0-0-0-0-|
|
| Gtr II
| PM------|   PM--------------------|   PM-----------
|-------------------------|-------------------------|
|-------------------------|-------------------------|
|-------------------------|-------------------------|
|-------------------------|-------------------------|
|-0-0-0-0-0---0-0-0-0-0-0-|-0-0-0-0-0---0-0-0-0-0-0-|
|-0-0-0-0-0---0-0-0-0-0-0-|-0-0-0-0-0---0-0-0-0-0-0-|


                            N.C.D5  N.C.
 ---------|   PM--------|       PM|
|-------------------------|-------------------|
|-------------------------|-------------------|
|-------------------------|-------------------|
|-------------------------|---------3b4---(3)-|
|-0-0-0-0-0---0-0-0-0-0-0-|-----0-0-----------|
|-0-0-0-0-0---0-0-0-0-0-0-|-3p0-0-0-----------|
|
|---------|   PM--------|       PM|
|-------------------------|-------------------|
|-------------------------|-------------------|
|-------------------------|-------------------|
|-------------------------|-------------------|
|-0-0-0-0-0---0-0-0-0-0-0-|-----0-0-5b6---(5)-|
|-0-0-0-0-0---0-0-0-0-0-0-|-3p0-0-0-----------|


  D5
  PM------------------------------------------------------------------------|
|-------------------------|-------------------------|-------------------------|
|-------------------------|-------------------------|-------------------------|
|-------------------------|-------------------------|-------------------------|
|-------------------------|-------------------------|-------------------------|
|-0-0-0-0-0---0-0-0-0-0-0-|-0-0-0-0-0---0-0-0-0-0-0-|-0-0-0-0-0---0-0-0-0-0-0-|
|-0-0-0-0-0---0-0-0-0-0-0-|-0-0-0-0-0---0-0-0-0-0-0-|-0-0-0-0-0---0-0-0-0-0-0-|
|
| PM------------------------------------------------------------------------|
|-------------------------|-------------------------|-------------------------|
|-------------------------|-------------------------|-------------------------|
|-------------------------|-------------------------|-------------------------|
|-------------------------|-------------------------|-------------------------|
|-0-0-0-0-0---0-0-0-0-0-0-|-0-0-0-0-0---0-0-0-0-0-0-|-0-0-0-0-0---0-0-0-0-0-0-|
|-0-0-0-0-0---0-0-0-0-0-0-|-0-0-0-0-0---0-0-0-0-0-0-|-0-0-0-0-0---0-0-0-0-0-0-|


  N.C.    D5        N.C.
 2/4               4/4
          PM----|
|-----------------|---------------||
|-----------------|---------------||
|-----------------|---------------||
|-----------------|-2b3------(2)--||
|---------0-0-0-0-|---------------||
|-3h5p3p0-0-0-0-0-|---------------||
|
|         PM----|
|-----------------|---------------||
|-----------------|---------------||
|-----------------|---------------||
|-----------------|---------------||
|---------0-0-0-0-|-3b4------(3)--||
|-3h5p3p0-0-0-0-0-|---------------||


  D5
  PM-------------------------------------------------
|-------------------------|-------------------------|
|-------------------------|-------------------------|
|-------------------------|-------------------------|
|-------------------------|-------------------------|
|-0-0-0-0-0---0-0-0-0-0-0-|-0-0-0-0-0---0-0-0-0-0-0-|
|-0-0-0-0-0---0-0-0-0-0-0-|-0-0-0-0-0---0-0-0-0-0-0-|
|
| PM-------------------------------------------------
|-------------------------|-------------------------|
|-------------------------|-------------------------|
|-------------------------|-------------------------|
|-------------------------|-------------------------|
|-0-0-0-0-0---0-0-0-0-0-0-|-0-0-0-0-0---0-0-0-0-0-0-|
|-0-0-0-0-0---0-0-0-0-0-0-|-0-0-0-0-0---0-0-0-0-0-0-|


                            N.C.    D5      N.C.
 -----------------------|           PM----|
|-------------------------|---------------------------|
|-------------------------|---------------------------|
|-------------------------|---------------------------|
|-------------------------|-----------------3b4---(3)-|
|-0-0-0-0-0---0-0-0-0-0-0-|---------0-0-0-0-----------|
|-0-0-0-0-0---0-0-0-0-0-0-|-3h5p3p0-0-0-0-0-----------|
|
|-----------------------|           PM----|
|-------------------------|---------------------------|
|-------------------------|---------------------------|
|-------------------------|---------------------------|
|-------------------------|---------------------------|
|-0-0-0-0-0---0-0-0-0-0-0-|---------0-0-0-0-5b6---(5)-|
|-0-0-0-0-0---0-0-0-0-0-0-|-3h5p3p0-0-0-0-0-----------|


  D5
  Gtrs I, II
  PM------|   PM--------------------|   PM--------------------|   PM--------|
|-------------------------|-------------------------|-------------------------|
|-------------------------|-------------------------|-------------------------|
|-------------------------|-------------------------|-------------------------|
|-------------------------|-------------------------|-------------------------|
|-0-0-0-0-0---0-0-0-0-0-0-|-0-0-0-0-0---0-0-0-0-0-0-|-0-0-0-0-0---0-0-0-0-0-0-|
|-0-0-0-0-0---0-0-0-0-0-0-|-0-0-0-0-0---0-0-0-0-0-0-|-0-0-0-0-0---0-0-0-0-0-0-|


  D5N.C.            D5
  Gtr I
|----------|----------||
|----------|----------||
|----------|----------||
|-0--------|----------||
|-0--------|----------||
|-0--------|--------0-||
|
| Gtr II
|----------|----------||
|----------|----------||
|----------|----------||
|-0--------|--------0-||
|-0--------|--------0-||
|-0--------|--------0-||


 Chorus
  D5              C5                          G5
|--------------------|--------------------------|
|--------------------|--------------------------|
|--------------------|------------------------5-|
|-------3---2h3----2-|--(2)-----3-----3p=2----x-|
|---------0-----0----|-------0-----0--------0-3-|
|-(0)-0--------------|--------------------------|
|
|--------------------|--------------------------|
|--------------------|--------------------------|
|--------------------|--------------------------|
|-(0)-0-0-0-0-0-0-10-|-(10)-10-10-10-10-10-10-5-|
|-(0)-0-0-0-0-0-0-10-|-(10)-10-10-10-10-10-10-5-|
|-(0)-0-0-0-0-0-0-10-|-(10)-10-10-10-10-10-10-5-|


                  Bb5                         D5
|--------------------|--------------------------|
|--------------------|--------------------------|
|-(5)---5---5s7------|--------------------------|
|-------x---x-----/5-|-(5)-3-(3)-/7-(7)-3-(3)-3-|
|-(3)-0-3-0-3s5-0----|--------------------------|
|--------------------|--------------------------|
|
|--------------------|--------------------------|
|--------------------|--------------------------|
|--------------------|--------------------------|
|-(5)-5-5-5-5-5-5--8-|-(8)-8--8---8--8--8--8--0-|
|-(5)-5-5-5-5-5-5--8-|-(8)-8--8---8--8--8--8--0-|
|-(5)-5-5-5-5-5-5--8-|-(8)-8--8---8--8--8--8--0-|


  D5              C5                          G/B
  Gtr I
|--------------------|---------------------------|
|--------------------|---------------------------|
|--------------------|-------------------------5-|
|--3----3---2h3----2-|--(2)-----3-----3p=2-----x-|
|-----0---0-----0----|-------0-----0--------0--3-|
|--------------------|---------------------------|
|
| Gtr II
|--------------------|---------------------------|
|--------------------|---------------------------|
|--------------------|---------------------------|
|-(0)-0-0-0-0-0-0-10-|-(10)-10-10-10-10-10-10--9-|
|-(0)-0-0-0-0-0-0-10-|-(10)-10-10-10-10-10-10-10-|
|-(0)-0-0-0-0-0-0-10-|-(10)-10-10-10-10-10-10--9-|
|
| Gtr III
|--------------------|---------------------------|
|--------------------|---------------------------|
|--------------------|---------------------------|
|--------------------|---------------------------|
|--------------------|---------------------------|
|--------------------|---------------------------|


                         Bb5                         D5
|---------------------------|---------------------------|
|---------------------------|---------------------------|
|--(5)-----5-----5s=7-------|------------------------10-|
|----------x-----x-------/5-|-(5)-3-(3)-/7-(7)-3-(3)--x-|
|--(3)--0--3--0--3s=5--0----|-------------------------8-|
|---------------------------|---------------------------|
|
|---------------------------|---------------------------|
|---------------------------|---------------------------|
|---------------------------|-------------------------7-|
|--(9)--9--9--9--9--9--9--8-|-(8)-8--8---8--8--8--8---x-|
|-(10)-10-10-10-10-10-10--8-|-(8)-8--8---8--8--8--8---5-|
|--(9)--9--9--9--9--9--9--8-|-(8)-8--8---8--8--8--8-----|
|
|---------------------------|---------------------------|
|---------------------------|---------------------------|
|---------------------------|---------------------------|
|---------------------------|-------------------------0-|
|---------------------------|-------------------------0-|
|---------------------------|-------------------------0-|


  D5                     C5                          G5
|---------------------------|---------------------------|
|---------------------------|---------------------------|
|-(10)-10-10-10-10-10-10--9-|--(9)--9--9--9--9--9--9-10-|
|-------x--x--x--x--x--x--x-|-------x--x--x--x--x--x--x-|
|--(8)--8--8--8--8--8--8--7-|--(7)--7--7--7--7--7--7--8-|
|---------------------------|---------------------------|
|
|---------------------------|---------------------------|
|---------------------------|---------------------------|
|--(7)--7--7--7--7--7--7--5-|--(5)--5--5--5--5--5--5--7-|
|-------x--x--x--x--x--x--x-|-------x--x--x--x--x--x--x-|
|--(5)--5--5--5--5--5--5--3-|--(3)--3--3--3--3--3--3--5-|
|---------------------------|---------------------------|
|
|---------------------------|---------------------------|
|---------------------------|---------------------------|
|---------------------------|---------------------------|
|--(0)--0--0--0--0--0--0-10-|-(10)-10-10-10-10-10-10--5-|
|--(0)--0--0--0--0--0--0-10-|-(10)-10-10-10-10-10-10--5-|
|--(0)--0--0--0--0--0--0-10-|-(10)-10-10-10-10-10-10--5-|


                         Bb5                         D5
|---------------------------|---------------------------|
|---------------------------|---------------------------|
|-(10)-10-10-10-10-10-10-10-|-(10)-10-10-10-10-10-10-10-|
|-------x--x--x--x--x--x--x-|-------x--x--x--x--x--x--x-|
|--(8)--8--8--8--8--8--8--8-|--(8)--8--8--8--8--8--8--8-|
|---------------------------|---------------------------|
|
|---------------------------|---------------------------|
|---------------------------|---------------------------|
|--(7)--7--7--7--7--7--7--7-|--(7)--7--7--7--7--7--7--7-|
|-------x--x--x--x--x--x--x-|-------x--x--x--x--x--x--x-|
|--(5)--5--5--5--5--5--5--5-|--(5)--5--5--5--5--5--5--5-|
|---------------------------|---------------------------|
|
|---------------------------|---------------------------|
|---------------------------|---------------------------|
|---------------------------|---------------------------|
|--(5)--5--5--5--5--5--5--8-|--(8)--8--8--8--8--8--8--0-|
|--(5)--5--5--5--5--5--5--8-|--(8)--8--8--8--8--8--8--0-|
|--(5)--5--5--5--5--5--5--8-|--(8)--8--8--8--8--8--8--0-|


  D5                     C5                          G/B
|---------------------------|---------------------------|
|---------------------------|---------------------------|
|-(10)-10-10-10-10-10-10--9-|--(9)--9--9--9--9--9--9-12-|
|-------x--x--x--x--x--x--x-|-------x--x--x--x--x--x--x-|
|--(8)--8--8--8--8--8--8--7-|--(7)--7--7--7--7--7--7-10-|
|---------------------------|---------------------------|
|
|---------------------------|---------------------------|
|---------------------------|---------------------------|
|--(7)--7--7--7--7--7--7--5-|--(5)--5--5--5--5--5--5--4-|
|-------x--x--x--x--x--x--x-|-------x--x--x--x--x--x--x-|
|--(5)--5--5--5--5--5--5--3-|--(3)--3--3--3--3--3--3--2-|
|---------------------------|---------------------------|
|
|---------------------------|---------------------------|
|---------------------------|---------------------------|
|---------------------------|---------------------------|
|--(0)--0--0--0--0--0--0-10-|-(10)-10-10-10-10-10-10--9-|
|--(0)--0--0--0--0--0--0-10-|-(10)-10-10-10-10-10-10-10-|
|--(0)--0--0--0--0--0--0-10-|-(10)-10-10-10-10-10-10--9-|


                         Bb5                         D5
|---------------------------|---------------------------|
|---------------------------|---------------------------|
|-(12)-12-12-12-12-12-12-10-|-(10)-10-10-10-10-10-10-10-|
|-------x--x--x--x--x--x--x-|-------x--x--x--x--x--x--x-|
|-(10)-10-10-10-10-10-10--8-|--(8)--8--8--8--8--8--8--8-|
|---------------------------|---------------------------|
|
|---------------------------|---------------------------|
|---------------------------|---------------------------|
|--(4)--4--4--4--4--4--4--7-|--(7)--7--7--7--7--7--7--7-|
|-------x--x--x--x--x--x--x-|-------x--x--x--x--x--x--x-|
|--(2)--2--2--2--2--2--2--5-|--(5)--5--5--5--5--5--5--5-|
|---------------------------|---------------------------|
|
|---------------------------|---------------------------|
|---------------------------|---------------------------|
|---------------------------|---------------------------|
|--(9)--9--9--9--9--9--9--8-|--(8)--8--8--8--8--8--8--0-|
|-(10)-10-10-10-10-10-10--8-|--(8)--8--8--8--8--8--8--0-|
|--(9)--9--9--9--9--9--9--8-|--(8)--8--8--8--8--8--8--0-|


  D5                     C5                          G/B
|---------------------------|---------------------------|
|---------------------------|---------------------------|
|-(10)-10-10-10-10-10-10--9-|--(9)--9--9--9--9--9--9-10-|
|-------x--x--x--x--x--x--x-|-------x--x--x--x--x--x--x-|
|--(8)--8--8--8--8--8--8--7-|--(7)--7--7--7--7--7--7--8-|
|---------------------------|---------------------------|
|
|---------------------------|---------------------------|
|---------------------------|---------------------------|
|--(7)--7--7--7--7--7--7--5-|--(5)--5--5--5--5--5--5--7-|
|-------x--x--x--x--x--x--x-|-------x--x--x--x--x--x--x-|
|--(5)--5--5--5--5--5--5--3-|--(3)--3--3--3--3--3--3--5-|
|---------------------------|---------------------------|
|
|---------------------------|---------------------------|
|---------------------------|---------------------------|
|---------------------------|---------------------------|
|--(0)--0--0--0--0--0--0-10-|-(10)-10-10-10-10-10-10--9-|
|--(0)--0--0--0--0--0--0-10-|-(10)-10-10-10-10-10-10-10-|
|--(0)--0--0--0--0--0--0-10-|-(10)-10-10-10-10-10-10--9-|


                         Bb5                         D5
|---------------------------|---------------------------|
|---------------------------|---------------------------|
|-(10)-10-10-10-10-10-10-10-|-(10)-10-10-10-10-10-10-10-|
|-------x--x--x--x--x--x--x-|-------x--x--x--x--x--x--x-|
|--(8)--8--8--8--8--8--8--8-|--(8)--8--8--8--8--8--8--8-|
|---------------------------|---------------------------|
|
|---------------------------|---------------------------|
|---------------------------|---------------------------|
|--(7)--7--7--7--7--7--7--7-|--(7)--7--7--7--7--7--7--7-|
|-------x--x--x--x--x--x--x-|-------x--x--x--x--x--x--x-|
|--(5)--5--5--5--5--5--5--5-|--(5)--5--5--5--5--5--5--5-|
|---------------------------|---------------------------|
|
|---------------------------|---------------------------|
|---------------------------|---------------------------|
|---------------------------|---------------------------|
|--(9)--9--9--9--9--9--9--8-|--(8)--8--8--8--8--8--8--0-|
|-(10)-10-10-10-10-10-10--8-|--(8)--8--8--8--8--8--8--0-|
|--(9)--9--9--9--9--9--9--8-|--(8)--8--8--8--8--8--8--0-|


  D5                     C5                          G/B
|---------------------------|---------------------------|
|---------------------------|---------------------------|
|-(10)-10-10-10-10-10-10--9-|--(9)--9--9--9--9--9--9-12-|
|-------x--x--x--x--x--x--x-|-------x--x--x--x--x--x--x-|
|--(8)--8--8--8--8--8--8--7-|--(7)--7--7--7--7--7--7-10-|
|---------------------------|---------------------------|
|
|---------------------------|---------------------------|
|---------------------------|---------------------------|
|--(7)--7--7--7--7--7--7--5-|--(5)--5--5--5--5--5--5--4-|
|-------x--x--x--x--x--x--x-|-------x--x--x--x--x--x--x-|
|--(5)--5--5--5--5--5--5--3-|--(3)--3--3--3--3--3--3--2-|
|---------------------------|---------------------------|
|
|---------------------------|---------------------------|
|---------------------------|---------------------------|
|---------------------------|---------------------------|
|--(0)--0--0--0--0--0--0-10-|-(10)-10-10-10-10-10-10--9-|
|--(0)--0--0--0--0--0--0-10-|-(10)-10-10-10-10-10-10-10-|
|--(0)--0--0--0--0--0--0-10-|-(10)-10-10-10-10-10-10--9-|


                         Bb5
|---------------------------|---------------------------||
|---------------------------|---------------------------||
|-(12)-12-12-12-12-12-12-10-|-(10)-10-10-10-10-10-10-10-||
|-------x--x--x--x--x--x--x-|-------x--x--x--x--x--x--x-||
|-(10)-10-10-10-10-10-10--8-|--(8)--8--8--8--8--8--8--8-||
|---------------------------|---------------------------||
|
|---------------------------|---------------------------||
|---------------------------|---------------------------||
|--(4)--4--4--4--4--4--4--7-|--(7)--7--7--7--7--7--7--7-||
|-------x--x--x--x--x--x--x-|-------x--x--x--x--x--x--x-||
|--(2)--2--2--2--2--2--2--5-|--(5)--5--5--5--5--5--5--5-||
|---------------------------|---------------------------||
|
|---------------------------|---------------------------||
|---------------------------|---------------------------||
|---------------------------|---------------------------||
|--(9)--9--9--9--9--9--9--8-|--(8)--8--8--8--8--8--8--8-||
|-(10)-10-10-10-10-10-10--8-|--(8)--8--8--8--8--8--8--8-||
|--(9)--9--9--9--9--9--9--8-|--(8)--8--8--8--8--8--8--8-||


 Outro
  D5                            N.C.
  Gtr I
                                             >
  PM------|   PM--------------|
|-------------------------|--------------|----------*|
|-------------------------|--------------|----------*|
|-------------------------|--------------|----------*|
|-------------------------|-----<5>------|-(<5>)----*|
|-0-0-0-0-0---0-0-0-0-0-0-|-0-0----------|----------*|
|-0-0-0-0-0---0-0-0-0-0-0-|-0-0----------|----------*|
|
| Gtr II
|                                            >
| PM------|   PM--------------|
|-------------------------|--------------|----------*|
|-------------------------|--------------|----------*|
|-------------------------|-----<5>------|-(<5>)----*|
|-------------------------|--------------|----------*|
|-0-0-0-0-0---0-0-0-0-0-0-|-0-0----------|----------*|
|-0-0-0-0-0---0-0-0-0-0-0-|-0-0----------|----------*|
Comments