Atreyu - You Eclipsed By Me Chords & Tabs

 

You Eclipsed By Me Chords & Tabs

Atreyu Chords & Tabs

Version: 2 Type: Tab 0 ratings
1 star 2 stars 3 stars 4 stars 5 stars
comments

You Eclipsed By Me Tab

   
-----------------------------------------------------------------------------
			     You Eclipsed by Me - Atreyu
-----------------------------------------------------------------------------
Tabbed by: 14NZ0rZ
Email:shabadia@hotmail.com


Regular tuning dropped how many steps?   4 2 2 2 2 2
Tuning: the tuning is drop C.          ( C G C F A D )

Hi, uhh i tabbed this out a while back and noticed no one has a good tab for 
it so here it is...and it sounds pretty freakin acurate.  enjoy


Intro/postchorus

                x2                 x2               x2
|------------------|------------------|----------------|
|------------------|------------------|----------------|
|-----14-14--------|-----13-13--------|-----9-9--------|
|000--------000000-|000--------000000-|888--8-8-888888-|  
|000--12-12-000000-|000--11-11-000000-|888--8-8-888888-|
|000--------000000-|000--------000000-|888--8-8-888888-|
            ......             ......           ......  

|------------------------------|
|------------------------------|
|-----6-6----------------------|
|555--5-5-555555--555533338888-| whole thing X2
|555--5-5-555555--555533338888-|
|555--5-5-555555--555533338888-|
         ......  ............
Verse

|----------------------------------------------------------|
|----------------------------------------------------------|
|----------------------------------------------------------|
|0000-0-0000000000-0-0000000000-0-00000--------------------|x4
|0000-0-0000000000-0-0000000000-0-00000------3^------------|
|0000-0-0000000000-0-0000000000-0-00000-5-3----------------|
 ....   ..........   ..........   .....


Chorus  (10s, not 1,0s)
|----------------------------------------------------------|
|----------------------------------------------------------|
|----------------------------------------------------------|
|000000-101010101010-555555-888888-------------------------|x4
|000000-101010101010-555555-888888-------------------------|
|000000-101010101010-555555-888888-------------------------|

Intro/post chorus

                x2                 x2               x2
|------------------|------------------|----------------|
|------------------|------------------|----------------|
|-----14-14--------|-----13-13--------|-----9-9--------|
|000--------000000-|000--------000000-|888--8-8-888888-|  
|000--12-12-000000-|000--11-11-000000-|888--8-8-888888-|
|000--------000000-|000--------000000-|888--8-8-888888-|
            ......             ......           ......  
|------------------------------|
|------------------------------|
|-----6-6----------------------|
|555--5-5-555555--555533338888-| Just x1
|555--5-5-555555--555533338888-|
|555--5-5-555555--555533338888-|
         ......  ............

Verse
[ Tab from: http://www.guitartabs.cc/tabs/a/atreyu/you_eclipsed_by_me_tab_ver_2.html ]
|----------------------------------------------------------|
|----------------------------------------------------------|
|----------------------------------------------------------|
|0000-0-0000000000-0-0000000000-0-00000--------------------|x4
|0000-0-0000000000-0-0000000000-0-00000------3^------------|
|0000-0-0000000000-0-0000000000-0-00000-5-3----------------|
 ....   ..........   ..........   .....


Pre-Chorus
(not exact number of strums)
|----------------------------------------------------------|
|----------------------------------------------------------|
|----------------------------------------------------------|
|888888888888-1010-121212121212121212121212----------------|
|888888888888-1010-121212121212121212121212----------------|
|888888888888-1010-121212121212121212121212----------------|

Breakdown                                \/ Only on 1st time
|--------------------------------------|--------------------|
|--------------------------------------|--------------------|
|--------------------------------------|--------------------|
|--------------------------------------|--------------------|x2 
|--------------------------------------|------3^------------|  
|0000-0-0000000000-0-0000000000-0-00000|-5-3----------------| 
 ....   ..........   ..........   .....

Verse

|----------------------------------------------------------|
|----------------------------------------------------------|
|----------------------------------------------------------|
|0000-0-0000000000-0-0000000000-0-00000--------------------|x4
|0000-0-0000000000-0-0000000000-0-00000------3^------------|
|0000-0-0000000000-0-0000000000-0-00000-5-3----------------|
 ....   ..........   ..........   .....


Chorus  (10s, not 1,0s)
|----------------------------------------------------------|
|----------------------------------------------------------|
|----------------------------------------------------------|
|000000-101010101010-555555-888888-------------------------|x8
|000000-101010101010-555555-888888-------------------------|
|000000-101010101010-555555-888888-------------------------|

End

|----------------------------------------------------------|
|----------------------------------------------------------|
|----------------------------------------------------------|
|0000-0-000000-0-0-----------------------------------------|
|0000-0-000000-0-0--5--------------------------------------|
|0000-0-000000-0-0-----------------------------------------|
 .... . ......

Well, thats it. yup. not that hard. Im suprized someone didnt do it sooner.
Give me good stars,
cuz this shiz is right!

more tabs to come!

| ^  bend
| .  palm mute
| /  slide up
| \  slide down
| h  hammer-on
| p  pull-off
| ~  vibrato
| +  harmonic
| x  Mute note
============================================================================
Comments