Atreyu - You Eclipsed By Me Chords & Tabs

 

You Eclipsed By Me Chords & Tabs

Atreyu Chords & Tabs

Version: 1 Type: Tab 0 ratings
1 star 2 stars 3 stars 4 stars 5 stars
comments

You Eclipsed By Me Tab

you eclipsed by me 
atreyu



guitar 1
*--------------------------------------------------------------------*
*--------------------------------------------------------------------*
*------1414------------1414------------1313------------1313----------*
*--000-x-x---------000-x-x---------000-x-x---------000-x-x-----------*
*--000-1212-000000-000-1212-000000-000-1111-000000-000-1111-000000---*
*--000------000000-000------000000-000------000000-000------000000---*
[ Tab from: http://www.guitartabs.cc/tabs/a/atreyu/you_eclipsed_by_me_tab.html ]
guitar 1
*--------------------------------------------------------------------------*
*--------------------------------------------------------------------------*
*--------------------------------------------------------------------------*
*--888-77--------888-777--------777-555--------5555333388888888------------*
*--888-88-000000-888-888-000000-555-555-000000-5555333388888888------------*
*--888-88-000000-888-888-000000-555-555-000000-5555333388888888------------*

guitar 2
*--------------------------------------------------------------------*
*--------------------------------------------------------------------*
*------1010------------1010------------1313------------1313----------*
*--000-x-x---------000-x-x---------000-x-x---------000-x-x-----------*
*--000-8-8--000000-000-8-8--000000-000-1111-000000-000-1111-000000---*
*--000------000000-000------000000-000------000000-000------000000---*


*--------------------------------------------------------------------------*
*--------------------------------------------------------------------------*
*--------------------------------------------------------------------------*
*------0-------------0------------0----------------------------------------*
*------0-------------0------------0---------------15*^---------------------*
*--00000--000000-00000-000000-00000-000000-10^0000-------------------------*
Comments