Atreyu - This Flesh Is A Tomb Chords & Tabs

 

This Flesh Is A Tomb Chords & Tabs

Atreyu Chords & Tabs

Version: 2 Type: Tab 0 ratings
1 star 2 stars 3 stars 4 stars 5 stars
comments

This Flesh Is A Tomb Tab

This is a pretty simple song, yet i found no tabs for it on this site... oh well, its 
easy as long as you understand tapping

regular atreyu tuning- cgcfad or dadgbe... i prefer D, but thats just me

intro, over the drums
e------------------------------------------------------|
b------------------------------------------------------|
g------------------------------------------------------|
d7-7-7-7--7-7-7-7-7-7-7-7------------------------------|
a4-4-4-4--4-4-4-4-4-4-4-4------------------------------|
d4-4-4-4--4-4-4-4-4-4-4-4------------------------------|

verse fig 1- i feel eyelashes... they lacerate my face...   repeat this 2x
e------------------------------|-------------------------------------------|
b------------------------------|-------------------------------------------|
g------------------------------|11-11-11-11-11-11-9-9-9-9-9-14-14-14-14-14-|
d4-4-4-4-4-4-4-4-4-4-4-4-4-4-4-|x-x-x-x-x-x-x-x-x-x-x-x-x-x-x-x-x-x-x-x-x--|
a4-4-4-4-4-4-4-4-4-4-4-4-4-4-4-|9-9-9-9-9-9-9-9-9-7-7-7-7-7-12-12-12-12-12-|
d4-4-4-4-4-4-4-4-4-4-4-4-4-4-4-|-------------------------------------------|

verse fig 2- im taking blood oaths
gtr 2- see bottom for an explanation
e ---------------------------|-------------------------------|
b----------------------------|-10p9---10p9---10p9---10p9p7---|
g ---------------------------|6------6------6------6---------|
                             |
 gtr 1                       |
d----------------------------|----------------------------------|
a---4-4-4p0--------4-4-4p0---|-----2-2-2p0---------2-2-2p0------|
d0h4-4-----4p0--0h4-4-----4p0|--0h2-2------2p0--0h2-2-------2p0-|

play the above 2x at the end of the second one, gtr 2 plays:
e---------------------------------------------------|
b-10p9--10p9--10p9--12-10-9-12----------------------|~~ fades into chorus
g6-----6-----6-----6--------------------------------|
d---------------------------------------------------|
a---------------------------------------------------|
d---------------------------------------------------|
[ Tab from: http://www.guitartabs.cc/tabs/a/atreyu/this_flesh_is_a_tomb_tab_ver_2.html ]
chorus: both gtrs
"and ill never need to see the sun again"
e-----------------------------------------------|
b--------------------------------------------3~-|
g--------------------------------------------2~-|
d--------------------------------------------0~-|
a----------------------4-4-2-2-4-4-7-7-0-0-0-0~-|
d----------------------4-4-2-2-4-4-7-7-0-0-0-0~-|
                                       . . .
e-----------------------------------------------|
b--------------------------------------------3~-|
g--------------------------------------------2~-|
d--------------------------------------------0~-|
a----------------------4-4-2-2-4-4-9-9-0-0-0-0~-|
d----------------------4-4-2-2-4-4-9-9-0-0-0-0~-|
                                       . . .
e-----------------------------------------------|
b--------------------------------------------3~-|
g--------------------------------------------2~-|
d--------------------------------------------0~-|
a----------------------4-4-2-2-4-4-7-7-0-0-0-0~-|
d----------------------4-4-2-2-4-4-7-7-0-0-0-0~-|
                                       . . .
e------------------------------------------------------------------|
b------------------------------------------------------------------|
g------------------------------------------------------------------|
d-2-2-2-2-2-2-2``````````------------------------------------------|
a-2-2-2-2-2-2-2``````````repeat untill going back into verse fig 1-|
d-2-2-2-2-2-2-2``````````------------------------------------------|

verse fig 1 again
then verse fig 2
then chorus

interlude before tapping
gtr 2 does repeats this with a tremelo pedal
e-----------------------------------------------------------------|
b-----------------------------------------------------------------|
g-----------------------------------------------------------------|
d4-4-4-4-4-4-4-2-2-2-2-2-2-2--------------------------------------|
a4-4-4-4-4-4-4-2-2-2-2-2-2-2--------------------------------------|
d4-4-4-4-4-4-4-2-2-2-2-2-2-2--------------------------------------|

ok, the only part im not 100% about... gtr 1 in the interlude... it goes something like this
e------------------------------------------------------------------|
b------------------------------------------------------------------|
g11~~~-9~~~-7~~~-5~~~-4~~~------------11~~~-9~~~-7~~~-5~~~-4~~~----|
d-x----x----x----x----x---------------x-----x----x----x----x-------|
a-9~~~-7~~~-5~~~-3~~~-2~~~------------9~~~~-7~~~-5~~~-3~~~-2-------|
d------------------------------------------------------------------|

tapping part- from here its easy
both gtrs
e------------------------------------------------------------------ -----|
b------------------------------------------------------------------------|     |r
g-t7p0h4-t7p0h4-t7p0h4-t7p0h4-t7p0h2-t7p0h2-t7p0h2-t7p0h2----------------|     |e
d------------------------------------------------------------------------|     |p
a------------------------------------------------------------------------|     |e
d------------------------------------------------------------------------|     |a
                                                                        |t
e------------------------------------------------------------------    ----|
b------------------------------------------------------------------     |2-|
g-t7p0h4-t7p0h4-t7p0h4-t7p0h4-t11p0h7-t11p0h7-t11p0h7-t11p0h7--------------|     |x
d------------------------------------------------------------------    ----|
a------------------------------------------------------------------    ----|
d------------------------------------------------------------------ -------|

the outro... i didnt feel like tabbing the acoustic part. its just simple chords with a 
of a detuner, that can be found on an rp 200a
"and i feel immortal, and i wanna make you feel the same"
e------------------------------------------------------------------|
b------------------------------------------------------------------|
g------------------------------------------------------------------| repeat
d------------------------------------------------------------------| till
a00000-2222222-44444-2222222-000000-2222222-4444444-222222---------| end
d00000-2222222-44444-2222222-000000-2222222-4444444-222222---------|

if your looking for the explanation on the verse fig 2, here it is. gtr one starts with 
part, the 0h4 thing. when they move onto the 0h2, the second guitar plays its part... i 
you understand that. my aim is budweiser8731
e-mail is budweiser8731@aol.com   hit me up with any questions
Comments