Atreyu - This Flesh Is A Tomb Chords & Tabs

 

This Flesh Is A Tomb Chords & Tabs

Atreyu Chords & Tabs

Version: 1 Type: Bass Tab 0 ratings
1 star 2 stars 3 stars 4 stars 5 stars
comments

This Flesh Is A Tomb Bass Tab

   
THIS FLESH A TOMB (Bassline)
As recorded by Atreyu
(From the 2004 Album THE CURSE)


Gtr I (C G C F)

 Intro
  Fast Rock Q=192
 4/4
  Gtr I
|-----||
|-----||
|-----||
|-----||


   Verse
    $
||------------------|----------------|-----------------|----------------|
||o-----------------|----------------|-----------------|----------------|
||o-----------------|----------------|-----------------|----------------|
||--4-4-4-4-4-4-4-4-|--4-4-4-4-0-0-0-|-4-4-4-4-4-4-4-4-|--4-4-4-4-0-0-0-|


|-----------------|----------------|-----------------|------------------||
|-----------------|----------------|-----------------|--3-3-3-3-3-3-3--o||
|-5-5-5-5-5-5-5-5-|--5-5-5-5-5-5-5-|-3-3-3-3-3-3-3-3-|-----------------o||
|-----------------|----------------|-----------------|------------------||


   Pre-Chorus
||------------------|-------------------|-----------------|-------------------|
||o-----------------|-------------------|-----------------|-------------------|
||o-----------------|-------------------|-----------------|-------------------|
||--4-4-4-4-4-4-4-4-|-(4)-4-4-4-4-4-4-4-|-4-4-4-4-4-4-4-4-|-(4)-4-4-4-4-4-4-4-|


  1.
|-----------------|-------------------|-----------------|---------------------||
|-----------------|-------------------|-----------------|--------------------o||
|-----------------|-------------------|-----------------|--------------------o||
|-0-0-0-0-0-0-0-0-|-(0)-0-0-0-0-0-0-0-|-0-0-0-0-0-0-0-0-|-(0)-0-0-0-2-2-2-2---||


  2.
|-----------------|-------------------|-----------------|--------------------||
|-----------------|-------------------|-----------------|--------------------||
|-----------------|-------------------|-----------------|--------------------||
|-0-0-0-0-0-0-0-0-|-(0)-0-0-0-0-0-0-0-|-0-0-0-0-0-0-0-0-|-(0)-0-0-0-2-2-2-0--||


 Chorus
|-------------------|-----------------|
|-------------------|-----------------|
|-------------------|-----------------|
|-(0)-0-0-0-0-0-0-0-|-0-0-0-0-0-0-0-4-|


|-------------------|----------------------|
|-------------------|----------------------|
|-------------------|----------------------|
|-(4)-4--2-(2)-2--4-|-(4)-4--7-(7)-7-7-0-0-|


|-----------------|-----------------|-------------------|----------------------|
|-----------------|-----------------|-------------------|----------------------|
|-----------------|-----------------|-------------------|----------------------|
|-0-0-0-0-0-0-0-0-|-0-0-0-0-0-0-0-4-|-(4)-4--2-(2)-2--4-|-(4)-4--9-(9)-9-9-0-0-|


|-----------------|-----------------|-------------------|----------------------|
|-----------------|-----------------|-------------------|----------------------|
|-----------------|-----------------|-------------------|----------------------|
|-0-0-0-0-0-0-0-0-|-0-0-0-0-0-0-0-4-|-(4)-4--2-(2)-2--4-|-(4)-4--7-(7)-7-7-0-0-|


                                                                    D.S.
|-----------------|-----------------|-------------------|------------------||
|-----------------|-----------------|-------------------|------------------||
|-----------------|-----------------|-------------------|------------------||
|-0-0-0-0-0-0-0-0-|-0-0-0-0-0-0-0-2-|-(2)-2-2-2-2-2-2-2-|-2-2-2-2-2-2-2-2--||

[ Tab from: http://www.guitartabs.cc/tabs/a/atreyu/this_flesh_is_a_tomb_btab.html ]
   Bridge
||------------------|-----------------|-----------------|-----------------|
||o-----------------|-----------------|-----------------|-----------------|
||o-----------------|-----------------|-----------------|-----------------|
||--4-4-4-4-4-4-4-4-|-4-4-4-4-4-4-4-4-|-4-4-4-4-4-4-4-4-|-4-4-4-4-7-7-7-7-|


|-----------------|-----------------|-----------------|-------------------||
|-----------------|-----------------|-----------------|------------------o||
|-----------------|-----------------|-----------------|------------------o||
|-0-0-0-0-0-0-0-0-|-0-0-0-0-0-0-0-0-|-2-2-2-2-2-2-2-2-|-2-2-2-2-2-2-2-2---||


   Guitar Solo
    Faster Q=195
||--------------|-------------|-------------|-------------|
||o-------------|-------------|-------------|-------------|
||o-------------|-------------|-------------|-------------|
||--0--0--0--0--|-0--0--0--0--|-2--2--2--2--|-2--2--2--2--|


  1.
|-------------|-------------|-------------|-------------------||
|-------------|-------------|-------------|------------------o||
|-------------|-------------|-------------|---------2--------o||
|-0--0--0--0--|-0--0--0--0S=|=7--7--7--7--|-2-6-2-6---6-2-6---||


  2.
|-------------|-------------|-------------|------------------||
|-------------|-------------|-------------|------------------||
|-------------|-------------|-------------|---------2--------||
|-4--4--4--4--|-4--4--4--4--|-2--2--2--2--|-4-4-4-4---4-4-4--||


   Interlude
    Faster Q=198
||-------------------|------------------|------------------|------------------|
||o------------------|------------------|------------------|------------------|
||o------------------|------------------|------------------|------------------|
||--0-0-0-0-(0)-0-0--|-(0)-0-0--0-0-0-0-|-2-2-2-2-(2)-2-2--|-(2)-2-2--2-2-2-2-|


                                                                              4x
|------------------|------------------|------------------|--------------------||
|------------------|------------------|------------------|-------------------o||
|------------------|------------------|------------------|-------------------o||
|-4-4-4-4-(4)-4-4--|-(4)-4-4--4-4-4-4-|-7-7-7-7-(7)-7-7--|-(7)-7-7--7-7-7-7---||


 Outro
  Half-Time Q=96
|----------|------------|------------|--------|
|----------|------------|------------|--------|
|----------|------------|------------|--------|
|-0--------|-(0)--------|-(0)--------|-(0)----|


    H.=H
         3x
||-------||
||o-----o||
||o-----o||
||-------||



Tablature Legend
----------------
 h   - hammer-on
 p   - pull-off
 b   - bend
 pb  - pre-bend
 r   - bend release (if no number after the r, then release immediately)
 /\  - slide into or out of (from/to "nowhere")
 s   - legato slide
 S   - shift slide
 - natural harmonic
[n]  - artificial harmonic
n(n) - tapped harmonic
 ~   - vibrato
 tr  - trill
 T   - tap
 TP  - trem. picking
 PM  - palm muting
\n/  - tremolo bar dip; n = amount to dip
 \n  - tremolo bar down
 n/  - tremolo bar up
/n\  - tremolo bar inverted dip
 =   - hold bend; also acts as connecting device for hammers/pulls
 <> - volume swell (louder/softer)
 x   - on rhythm slash represents muted slash
 o   - on rhythm slash represents single note slash

Misc Legend
-----------
 |  - bar
||  - double bar
||o - repeat start
o|| - repeat end
*|  - double bar (ending)
 :  - bar (freetime)
 $  - Segno
 &  - Coda
Tempo markers -  = BPM(8/16=s8/s16), where s8 = swing 8ths, s16 = swing 16ths
Comments