Atreyu - Theft Chords & Tabs

 

Theft Chords & Tabs

Atreyu Chords & Tabs

Version: 2 Type: Tab

Theft Tab

alright this is how i think it is... if u can't play it... i'm 13 so... ya good one... 
about possible slight confusion

Questions and comments: xxkillthelightsandgracemexx@hotmail.com

(strings in beginning)

Guitar 1 (play each set 2ce)
e|-------------------------------------------------------------------------|
B|-------------------------------------------------------------------------|
G|-7-7-7-7-7-9-1111111111-----6-6-6-6-6-9-1111111111-----------------------|
D|-X-X-X-X-X-X-X-X-X-X-X------X-X-X-X-X-X-X-X-X-X-X------------------------|
A|-5-5-5-5-5-7-9-9-9-9-9------4-4-4-4-4-7-9-9-9-9-9------------------------|
E|-------------------------------------------------------------------------|

e|-------------------------------------------------------------------------|
B|-------------------------------------------------------------------------|
G|-7-7-7-7-7-9-1111111111------1010101010107-7-7-7-7-7---------------------|
D|-X-X-X-X-X-X-X-X-X-X-X-------X-X-X-X-X-X-X-X-X-X-X-X---------------------|
A|-5-5-5-5-5-7-9-9-9-9-9-------8-8-8-8-8-8-5-5-5-5-5-5---------------------|
E|-------------------------------------------------------------------------|

Guitar 2
e|-------------------------------------------------------------------------|
B|-------------------------------------------------------------------------|
G|-------------------------------------------------------------------------|
D|-0-0-0-0-0-0-0-0-0-0-0-0--4-4-4-4-4-4-4-4-4-4-4-4------------------------|
A|-0-0-0-0-0-0-0-0-0-0-0-0--4-4-4-4-4-4-4-4-4-4-4-4------------------------|
E|-0-0-0-0-0-0-0-0-0-0-0-0--4-4-4-4-4-4-4-4-4-4-4-4------------------------|

e|-------------------------------------------------------------------------|
B|-------------------------------------------------------------------------|
G|-4-4-4-4-4-4-4-4-4-4-4-4--3-3-3-3-3-3-3-3-3-3-3-3------------------------|
D|-4-4-4-4-4-4-4-4-4-4-4-4--3-3-3-3-3-3-3-3-3-3-3-3------------------------|
A|-2-2-2-2-2-2-2-2-2-2-2-2--1-1-1-1-1-1-1-1-1-1-1-1------------------------|
E|-------------------------------------------------------------------------|

Verse (x2)

Verse (clean play each X4)             (each X2 only)  (repeat)
e|---------5-------------5-----|----------3---------------6----------------|
B|-----7-----7-------7-----7---|------3-----3---------8-----8--------------|
G|-7-7---7-------6-6---6-------|--4-4---4---------0-0---0------------------|
D|-----------------------------|-------------------------------------------|
A|-----------------------------|-------------------------------------------|
E|-----------------------------|-------------------------------------------|

Guitar 2 (repeat each one time) (play all only once after ^ played once)
e|-------------------------------------------------------------------------|
G|-------------------------------------------------------------------------|
B|-------------------------------------------------------------------------|
D|-------------------------------------------------------------------------|
A|-5-5------5-5-|-4-4------4-4-|-2-2------2-2-|-1-1------1-1---------------|
E|-------------------------------------------------------------------------|
   . .      . .   . .      . .   . .      . .   . .      . .
Chorus X2

Guitar 1 (play each set 2ce)
e|-------------------------------------------------------------------------|
B|-------------------------------------------------------------------------|
G|-7-7-7-7-7-9-1111111111-----6-6-6-6-6-9-1111111111-----------------------|
D|-X-X-X-X-X-X-X-X-X-X-X------X-X-X-X-X-X-X-X-X-X-X------------------------|
A|-5-5-5-5-5-7-9-9-9-9-9------4-4-4-4-4-7-9-9-9-9-9------------------------|
E|-------------------------------------------------------------------------|

e|-------------------------------------------------------------------------|
B|-------------------------------------------------------------------------|
G|-7-7-7-7-7-9-1111111111------1010101010107-7-7-7-7-7---------------------|
D|-X-X-X-X-X-X-X-X-X-X-X-------X-X-X-X-X-X-X-X-X-X-X-X---------------------|
A|-5-5-5-5-5-7-9-9-9-9-9-------8-8-8-8-8-8-5-5-5-5-5-5---------------------|
E|-------------------------------------------------------------------------|
[ Tab from: http://www.guitartabs.cc/tabs/a/atreyu/theft_tab_ver_2.html ]
Guitar 2
e|-------------------------------------------------------------------------|
B|-------------------------------------------------------------------------|
G|-------------------------------------------------------------------------|
D|-0-0-0-0-0-0-0-0-0-0-0-0--4-4-4-4-4-4-4-4-4-4-4-4------------------------|
A|-0-0-0-0-0-0-0-0-0-0-0-0--4-4-4-4-4-4-4-4-4-4-4-4------------------------|
E|-0-0-0-0-0-0-0-0-0-0-0-0--4-4-4-4-4-4-4-4-4-4-4-4------------------------|

e|-------------------------------------------------------------------------|
B|-------------------------------------------------------------------------|
G|-4-4-4-4-4-4-4-4-4-4-4-4--3-3-3-3-3-3-3-3-3-3-3-3------------------------|
D|-4-4-4-4-4-4-4-4-4-4-4-4--3-3-3-3-3-3-3-3-3-3-3-3------------------------|
A|-2-2-2-2-2-2-2-2-2-2-2-2--1-1-1-1-1-1-1-1-1-1-1-1------------------------|
E|-------------------------------------------------------------------------|

Verse 2 (dirty)

Guitar 1  (each X 4)                          (each X2)  (repeat)
e|-----------------------------|-------------------------------------------|
G|-----------------------------|-------------------------------------------|
B|-----------------------------|-------------------------------------------|
D|-----4---7-4--------4---7-4--|------2---5-2--------5---8-5---------------|
A|-5-5---5--------4-4---4------|--2-2---2----------------------------------|
E|-----------------------------|-----------------5-5---5-------------------|
   . .   .        . .   .         . .   .        . .   .

Guitar 2 (not properly spaced... no need for it)(X2)
(play each 24X)     (play each 12X)
e|-------------|-----------------------------------------------------------|
G|-------------|-----------------------------------------------------------|
B|-7-------6---|-----4--------3--------------------------------------------|
D|-7-------7---|-----4--------3--------------------------------------------|
A|-5-------4---|-----2--------1--------------------------------------------|
E|-------------|-----------------------------------------------------------|
   .       .         .        .

Bridge
Guitar Two (play 4X)
  (each 12X)
e|-------------------------------------------------------------------------|
G|-------------------------------------------------------------------------|
B|------------------7------------------------------------------------------|
D|-5-------8--------7----------4-------------------------------------------|
A|-5-------8--------5----------4-------------------------------------------|
E|-5-------8-------------------4-------------------------------------------|

Guitar one (come in at beginning of guitar 2's 3rd time playing ^)
e|-3----3-5-3----6-8-6-5-----------------0-2-3---3-5-3-6---2-0-------------|
G|-------------------------------------3-----------------------3-----------|
B|-------------------------------------------------------------------------|
D|-----------------------0-------4-----------------------------------------|
A|-----------------------0-------4-----------------------------------------|
E|-----------------------0-(12X)-4(6X)-------------------------------------|

Chorus X2

Guitar 1 (play each set 2ce)
e|-------------------------------------------------------------------------|
B|-------------------------------------------------------------------------|
G|-7-7-7-7-7-9-1111111111-----6-6-6-6-6-9-1111111111-----------------------|
D|-X-X-X-X-X-X-X-X-X-X-X------X-X-X-X-X-X-X-X-X-X-X------------------------|
A|-5-5-5-5-5-7-9-9-9-9-9------4-4-4-4-4-7-9-9-9-9-9------------------------|
E|-------------------------------------------------------------------------|

e|-------------------------------------------------------------------------|
B|-------------------------------------------------------------------------|
G|-7-7-7-7-7-9-1111111111------1010101010107-7-7-7-7-7---------------------|
D|-X-X-X-X-X-X-X-X-X-X-X-------X-X-X-X-X-X-X-X-X-X-X-X---------------------|
A|-5-5-5-5-5-7-9-9-9-9-9-------8-8-8-8-8-8-5-5-5-5-5-5---------------------|
E|-------------------------------------------------------------------------|

Guitar 2
e|-------------------------------------------------------------------------|
B|-------------------------------------------------------------------------|
G|-------------------------------------------------------------------------|
D|-0-0-0-0-0-0-0-0-0-0-0-0--4-4-4-4-4-4-4-4-4-4-4-4------------------------|
A|-0-0-0-0-0-0-0-0-0-0-0-0--4-4-4-4-4-4-4-4-4-4-4-4------------------------|
E|-0-0-0-0-0-0-0-0-0-0-0-0--4-4-4-4-4-4-4-4-4-4-4-4------------------------|

e|-------------------------------------------------------------------------|
B|-------------------------------------------------------------------------|
G|-4-4-4-4-4-4-4-4-4-4-4-4--3-3-3-3-3-3-3-3-3-3-3-3------------------------|
D|-4-4-4-4-4-4-4-4-4-4-4-4--3-3-3-3-3-3-3-3-3-3-3-3------------------------|
A|-2-2-2-2-2-2-2-2-2-2-2-2--1-1-1-1-1-1-1-1-1-1-1-1------------------------|
E|-------------------------------------------------------------------------|

the end :)

. = palm mute