Atreyu - Theft Chords & Tabs

 

Theft Chords & Tabs

Atreyu Chords & Tabs

Version: 1 Type: Tab

Theft Tab

   
Artist: Atreyu
Title: The Theft
Album: A Death-Grip On Yesterday (2006)
Tabbed by: HavoQ (m_esq182@hotmail.com)

Drop C

Intro                      
                           2x                          2x
|--------------------------|---------------------------|
|--------------------------|---------------------------|
|--7-7-7-7-7/9-11-11111111-|--6-6-6-6-6/9-11-11111111--|
|--x-x-x-x-x/x-x--x-x-x-x--|--x-x-x-x-x/x-x--x-x-x-x---|
|--5-5-5-5-5/7-9--9-9-9-9--|--4-4-4-4-4/7-9--9-9-9-9---|
|--------------------------|---------------------------|

                           2x                          2x
|--------------------------|---------------------------|
|--------------------------|---------------------------|
|--7-7-7-7-7/9-11-11111111-|-101010101010/7--7-7-7-7---|
|--x-x-x-x-x/x-x--x-x-x-x--|--x-x-x-x-x-x/x--x-x-x-x---|
|--5-5-5-5-5/7-9--9-9-9-9--|--8-8-8-8-8-8/5--5-5-5-5---|
|--------------------------|---------------------------|

Verse (Clean part)
|---------5----|----------5----|----------3----|----------6----|----------5----|
|-----7-----7--|------7-----7--|------3-----3--|------8-----8--|------8-----8--|
|-7-7---7------|--6-6---6------|--4-4---4------|--7-7---7------|--7-7---7------|
|--------------|---------------|---------------|---------------|---------------|
|--------------|---------------|---------------|---------------|---------------|
|--------------|---------------|---------------|---------------|---------------|
              x4               x4              x2        

Chorus                     
                           2x                          2x
|--------------------------|---------------------------|
|--------------------------|---------------------------|
|--7-7-7-7-7/9-11-11111111-|--6-6-6-6-6/9-11-11111111--|
|--x-x-x-x-x/x-x--x-x-x-x--|--x-x-x-x-x/x-x--x-x-x-x---|
|--5-5-5-5-5/7-9--9-9-9-9--|--4-4-4-4-4/7-9--9-9-9-9---|
|--------------------------|---------------------------|
[ Tab from: http://www.guitartabs.cc/tabs/a/atreyu/theft_tab.html ]
                           2x                          2x
|--------------------------|---------------------------|
|--------------------------|---------------------------|
|--7-7-7-7-7/9-11-11111111-|-101010101010/7--7-7-7-7---|
|--x-x-x-x-x/x-x--x-x-x-x--|--x-x-x-x-x-x/x--x-x-x-x---|
|--5-5-5-5-5/7-9--9-9-9-9--|--8-8-8-8-8-8/5--5-5-5-5---|
|--------------------------|---------------------------|

Verse 2
|--------------|--------------|-----------------|---------------------------------|
|--------------|--------------|-----------------|---------------------------------|
|--------------|--------------|-----------------|---------------------------------|
|-----4---7p4--|-----4---7p4--|-------2---5p2---|------5---8p5---8p5---5h7p5-4h5--|
|-5-5---5------|-4-4---4------|---2-2---2-------|--5-5---5-----5-----5------------|
|--------------|--------------|-----------------|---------------------------------|
PM. .   .     x4 . .   .    x4    . .   .      x2  . .   .     .     .  

|-------------------------------------------|
|-------------------------------------------|
|-------------------------------------------|
|-55555555-888888888-0000000000-4444444444--|
|-55555555-888888888-0000000000-4444444444--|
|-55555555-888888888-0000000000-4444444444--|x2

Chorus                     
                           2x                          2x
|--------------------------|---------------------------|
|--------------------------|---------------------------|
|--7-7-7-7-7/9-11-11111111-|--6-6-6-6-6/9-11-11111111--|
|--x-x-x-x-x/x-x--x-x-x-x--|--x-x-x-x-x/x-x--x-x-x-x---|
|--5-5-5-5-5/7-9--9-9-9-9--|--4-4-4-4-4/7-9--9-9-9-9---|
|--------------------------|---------------------------|

                           2x                          2x
|--------------------------|---------------------------|
|--------------------------|---------------------------|
|--7-7-7-7-7/9-11-11111111-|-101010101010/7--7-7-7-7---|
|--x-x-x-x-x/x-x--x-x-x-x--|--x-x-x-x-x-x/x--x-x-x-x---|
|--5-5-5-5-5/7-9--9-9-9-9--|--8-8-8-8-8-8/5--5-5-5-5---|
|--------------------------|---------------------------|