Atreyu - The Remembrance Ballad Chords & Tabs

 

The Remembrance Ballad Chords & Tabs

Atreyu Chords & Tabs

Version: 6 Type: Tab 0 ratings
1 star 2 stars 3 stars 4 stars 5 stars
comments

The Remembrance Ballad Tab

Atreyu - The Remembrance Ballad - The Curse
Tabbed By Phil
2:51 SOLO


 D|------------3------------------------------------------------------|
 A|----------3--------------------------------------------------------|
 F|-5b6----------6r5--3p2-3-2-----------------------------------------|
 C|---------------------------3~~~~-3p0--2-3-5-3-2p3h3~~~~~2h3/5~~~~~-|
 G|-------------------------------------------------------------------|
 C|-------------------------------------------------------------------|
                                       PM-------| 
[ Tab from: http://www.guitartabs.cc/tabs/a/atreyu/the_remembrance_ballad_tab_ver_6.html ]
 D|-----------------121415br--13p12h13----15-20br---15~~b16-12p13-15~~|
 A|-------------1315--------------------------------------------------|
 F|-------121415------------------------------------------------------|
 C|-121415------------------------------------------------------------|
 G|-------------------------------------------------------------------|
 C|-------------------------------------------------------------------|

 D|-13--22br--20-19-17-----------------------------171820~22br19201917|
 A|--------------------18--------------------171820-------------------|
 F|-----------------------17~~~~-------171920-------------------------|
 C|------------------------------171920-------------------------------|
 G|-------------------------------------------------------------------|
 C|-------------------------------------------------------------------|

 D|191715------------------||
 A|------17182018~~~~~~~---||
 F|------------------------||
 C|------------------------||
 G|------------------------||
 C|------------------------||

I'm pretty damn sure this tab is correct and its easier to play that some of the other
solos that have been tabbed. This is a quality song and reasonably simple solo that
sounds cool, enjoy it.
Comments