Atreyu - The Remembrance Ballad Chords & Tabs

 

The Remembrance Ballad Chords & Tabs

Atreyu Chords & Tabs

Version: 5 Type: Tab 0 ratings
1 star 2 stars 3 stars 4 stars 5 stars
comments

The Remembrance Ballad Tab

   
THE REMEMBRANCE BALLAD
As recorded by Atreyu
(From the 2004 Album THE CURSE)
Words and Music by Atreyu
Arranged by Atreyu

Gtr I (C G C F A D) - 'Untitled'
Gtr II (C G C F A D) - 'Untitled'
Gtr III (C G C F A D) - 'Untitled'
Gtr IV (C G C F A D) - 'Untitled'
Gtr V (C G C F A D) - 'Untitled'
Gtr VI (C G C F A D) - 'Untitled'

 Intro
  Moderately Slow Rock Q=73
  D5                                                  Bbsus2
 4/4
  Gtr I
|---------------------------------------------------|-------------------------|
|---------------------------------------------------|-------------------------|
|--7------------------------------------------------|--10---------------------|
|--0------------------------------------------------|--10---------------------|
|--0------------------------------------------------|---8---------------------|
|--0------------------------------------------------|---8---------------------|
|
| Gtr II
|---------------------------------------------------|-------------------------|
|-------15-/17-(17)-18-(18)-(18)-17-(17)-18-(18)----|-------------------------|
|----14------------------------------------------17-|-(17)-19p17-19----(19)\--|
|-12------------------------------------------------|-------------------------|
|---------------------------------------------------|-------------------------|
|---------------------------------------------------|-------------------------|


  D5                                              Bbsus2
|-----------------------------------------------|---------------------------------------------||
|-----------------------------------------------|---------------------------------------------||
|--7--------------------------------------------|-10------------------------------------------||
|--0--------------------------------------------|-10------------------------------------------||
|--0--------------------------------------------|--8------------------------------------------||
|--0--------------------------------------------|--8------------------------------------------||
|
|--------------------------------------17-18-20-|-20-18-17------------------------------------||
|-------15-/17-(17)-18-(18)-(18)----18----------|----------20---20b22r(20)-18-17-18-----------||
|----14--------------------------17-------------|-----------------------------------19-(19)\--||
|-12--------------------------------------------|---------------------------------------------||
|-----------------------------------------------|---------------------------------------------||
|-----------------------------------------------|---------------------------------------------||


 Pre-Verse
  Dsus2                            Dm
|-----------------------------------------------------------|
|-----------------------------------------------------------|
|--9--9--9---9---9---9---9--9---9--10-10-10--10--10--10--10-|
|--0--0--0---0---0---0---0--0---0---0--0--0---0---0---0---0-|
|--0--0--0---0---0---0---0--0---0---0--0--0---0---0---0---0-|
|--0--0--0---0---0---0---0--0---0---0--0--0---0---0---0---0-|
|
|-----------------------------------------------------------|
|-------15-/17-(17)-18-(18)---(18)-------17-(17)-18-(18)----|
|----14--------------------------------------------------17-|
|-12--------------------------------------------------------|
|-----------------------------------------------------------|
|-----------------------------------------------------------|


  Bbsus2                          Bb
|----------------------------------------------------------|
|----------------------------------------------------------|
|----------------------------------------------------------|
|--10--10-10-10----10-10-10-10-10-12-12-12--12---12-12-12--|
|---8---8--8--8-----8--8--8--8--8--8--8--8---8----8--8--8--|
|---8---8--8--8-----8--8--8--8--8--8--8--8---8----8--8--8--|
|
|----------------------------------------------------------|
|----------------------------------------------------------|
|-(17)-------19p17-19----------------------(19)\-----------|
|----------------------------------------------------------|
|----------------------------------------------------------|
|----------------------------------------------------------|


  Dsus2                            Dm
|----------------------------------------------------------------|
|----------------------------------------------------------------|
|--9--9--9---9---9---9---9--9---9--10-10-10----10-10----10----10-|
|--0--0--0---0---0---0---0--0---0---0--0--0-----0--0-----0-----0-|
|--0--0--0---0---0---0---0--0---0---0--0--0-----0--0-----0-----0-|
|--0--0--0---0---0---0---0--0---0---0--0--0-----0--0-----0-----0-|
|
|----------------------------------------------17----18----20----|
|-------15-/17-(17)-18-(18)---(18)----------18-------------------|
|----14----------------------------------17----------------------|
|-12-------------------------------------------------------------|
|----------------------------------------------------------------|
|----------------------------------------------------------------|


  Bbsus2                       Bb
|-----------------------------------------------------------|
|-----------------------------------------------------------|
|-----------------------------------------------------------|
|-10-10-10-10--10--10-10-10-10-12-----12--12-12-12-12--12---|
|--8--8--8--8---8---8--8--8--8--8------8---8--8--8--8---8---|
|--8--8--8--8---8---8--8--8--8--8------8---8--8--8--8---8---|
|
|-20----22-18-(18)------------------------------------------|
|------------------------------20b22r(20)-18-17-18----------|
|--------------------------------------------------19-(19)\-|
|-----------------------------------------------------------|
|-----------------------------------------------------------|
|-----------------------------------------------------------|


  Dsus2                            Dm                         Bbsus2                          Bb
|-----------------------------------------------------------|---------------------------------------------------------|
|-----------------------------------------------------------|---------------------------------------------------------|
|--9--9--9---9---9---9---9--9---9--10-10-10--10--10--10--10-|---------------------------------------------------------|
|--0--0--0---0---0---0---0--0---0---0--0--0---0---0---0---0-|--10--10-10-10----10-10-10-10-10-12-12-12--12---12-12-12-|
|--0--0--0---0---0---0---0--0---0---0--0--0---0---0---0---0-|---8---8--8--8-----8--8--8--8--8--8--8--8---8----8--8--8-|
|--0--0--0---0---0---0---0--0---0---0--0--0---0---0---0---0-|---8---8--8--8-----8--8--8--8--8--8--8--8---8----8--8--8-|
|
|-----------------------------------------------------------|---------------------------------------------------------|
|-------15-/17-(17)-18-(18)---(18)-------17-(17)-18-(18)----|---------------------------------------------------------|
|----14--------------------------------------------------17-|-(17)-------19p17-19----------------------(19)\----------|
|-12--------------------------------------------------------|---------------------------------------------------------|
|-----------------------------------------------------------|---------------------------------------------------------|
|-----------------------------------------------------------|---------------------------------------------------------|


  Dsus2                            Dm
|----------------------------------------------------------------|
|----------------------------------------------------------------|
|--9--9--9---9---9---9---9--9---9--10-10-10----10-10----10----10-|
|--0--0--0---0---0---0---0--0---0---0--0--0-----0--0-----0-----0-|
|--0--0--0---0---0---0---0--0---0---0--0--0-----0--0-----0-----0-|
|--0--0--0---0---0---0---0--0---0---0--0--0-----0--0-----0-----0-|
|
|----------------------------------------------17----18----20----|
|-------15-/17-(17)-18-(18)---(18)----------18-------------------|
|----14----------------------------------17----------------------|
|-12-------------------------------------------------------------|
|----------------------------------------------------------------|
|----------------------------------------------------------------|


  Bbsus2                           Bb                          A5
|------------------------------------------------------------|-------||
|------------------------------------------------------------|-------||
|------------------------------------------------------------|-------||
|-10----10-10-10----10-10-10-10-10-12-----12--12-12-12-12-12-|--7----||
|--8-----8--8--8-----8--8--8--8--8--8------8---8--8--8--8--8-|--7----||
|--8-----8--8--8-----8--8--8--8--8--8------8---8--8--8--8--8-|--7----||
|
|-20b22-------20-18-20-------------20b22r(20)-18-17----------|-------||
|---------------------------------------------------18-------|-------||
|------------------------------------------------------17----|-------||
|---------------------------------------------------------20-|-19----||
|------------------------------------------------------------|-------||
|------------------------------------------------------------|-------||


 Verse
  D5
      PM---|                   PM--|       PM
|----------------------------------------------|
|----------------------------------------------|
|----------------------------------------------|
|--0----------0-(0)--------(0)-------0-(0)---0-|
|--0--0--0--0-0-(0)--------(0)-0-0-0-0-(0)-0-0-|
|--0--0--0--0-0-(0)--------(0)-0-0-0-0-(0)-0-0-|
|
|  PM---|
|----------------------------------------------|
|----------------------------------------------|
|----------10----9-----------------------------|
|-12----12----------10-12-(12)-----------------|
|----12----------------------------------------|
|----------------------------------------------|


  Bb/D
      PM---|                 PM--|       PM
|---------------------------------------------|
|---------------------------------------------|
|---------------------------------------------|
|--0----------0-(0)------(0)-------0-(0)----0-|
|--1--1--1--1-1-(1)------(1)-1-1-1-1-(1)-1--1-|
|--0--0--0--0-0-(0)------(0)-0-0-0-0-(0)-0--0-|
|
|  PM---|
|---------------------------------------------|
|---------------------------------------------|
|----------10----9----------------------------|
|-12----12----------10-8-(8)----------8s10-10-|
|----12---------------------------------------|
|---------------------------------------------|


  D5
      PM---|                   PM--|       PM
|----------------------------------------------|
|----------------------------------------------|
|----------------------------------------------|
|--0----------0-(0)--------(0)-------0-(0)---0-|
|--0--0--0--0-0-(0)--------(0)-0-0-0-0-(0)-0-0-|
|--0--0--0--0-0-(0)--------(0)-0-0-0-0-(0)-0-0-|
|
|  PM---|
|----------------------------------------------|
|----------------------------------------------|
|----------10----9-----------------------------|
|-12----12----------10-12-(12)-----------------|
|----12----------------------------------------|
|----------------------------------------------|


  Bb/D
      PM---|                   PM--|        PM
|----------------------------------------------------|
|----------------------------------------------------|
|----------------------------------------------------|
|--0----------0-(0)------(0)----------0-(0)------0---|
|--1--1--1--1-1-(1)------(1)---1-1--1-1-(1)-1----1---|
|--0--0--0--0-0-(0)------(0)---0-0--0-0-(0)-0----0---|
|
|  PM---|
|----------------------------------------------------|
|----------------------------------------------------|
|----------10----9-----------/12---10----9h10p9------|
|-12----12----------10-8-(8)--------------------10p0-|
|----12----------------------------------------------|
|----------------------------------------------------|


  D5
   PM---------------|              PM--|       PM
|--------------------------------------------------|
|--------------------------------------------------|
|--------------------------------------------------|
|----------------------------------------0-(0)---0-|
|--0-0--0-0--0-0--0-0--------------0-0-0-0-(0)-0-0-|
|--0-0--0-0--0-0--0-0--------------0-0-0-0-(0)-0-0-|
|
|  PM-------|
|--------------------------------------------------|
|--------------------------------------------------|
|----------------10---9----------------------------|
|-12--------12----------10-12-(12)-----------------|
|------12------------------------------------------|
|--------------------------------------------------|


  Bb5                                  Bb/D Bb5Bb/D
   PM---------------|            PM--|       PM
|-------------------------------------------------|
|-------------------------------------------------|
|-------------------------------------------------|
|--3-3--3-3--3-3--3-3------------3-3-3-0-(0)-3--0-|
|--1-1--1-1--1-1--1-1------------1-1-1-1-(1)-1--1-|
|--------------------------------------0-(0)----0-|
|
|  PM-------|
|-------------------------------------------------|
|-------------------------------------------------|
|----------------10---9---------------------------|
|-12--------12----------10-8-(8)----------8s10-10-|
|------12-----------------------------------------|
|-------------------------------------------------|


  D5
   PM---------------|              PM--|       PM
|--------------------------------------------------|
|--------------------------------------------------|
|--------------------------------------------------|
|----------------------------------------0-(0)---0-|
|--0-0--0-0--0-0--0-0--------------0-0-0-0-(0)-0-0-|
|--0-0--0-0--0-0--0-0--------------0-0-0-0-(0)-0-0-|
|
|  PM-------|
|--------------------------------------------------|
|--------------------------------------------------|
|----------------10---9----------------------------|
|-12--------12----------10-12-(12)-----------------|
|------12------------------------------------------|
|--------------------------------------------------|


  Bb5                                     Bb/D Bb5  Bb/D
   PM---------------|              PM--|        PM
|--------------------------------------------------------||
|--------------------------------------------------------||
|--------------------------------------------------------||
|--3-3--3-3--3-3--3-3--------------3-3--3-0-(0)-3----0---||
|--1-1--1-1--1-1--1-1--------------1-1--1-1-(1)-1----1---||
|-----------------------------------------0-(0)------0---||
|
|  PM-------|
|--------------------------------------------------------||
|--------------------------------------------------------||
|----------------10---9----------/12---10----9h10p9------||
|-12--------12----------10-8-(8)--------------------10p0-||
|------12------------------------------------------------||
|--------------------------------------------------------||


 Pre-Chorus
  $
  G5              A5                Bb5                C5
|---------------------------------|--------------------------------------------|
|---------------------------------|--------------------------------------------|
|---------------------------------|--------------------------------------------|
|-5-5-5-5-5-5-5-5-7-7-7-7-7-7-7-7-|--8--8--8-8-8-8-8-8-10-10-10-10-10-10-10-10-|
|-5-5-5-5-5-5-5-5-7-7-7-7-7-7-7-7-|--8--8--8-8-8-8-8-8-10-10-10-10-10-10-10-10-|
|-5-5-5-5-5-5-5-5-7-7-7-7-7-7-7-7-|--8--8--8-8-8-8-8-8-10-10-10-10-10-10-10-10-|
|
|---------------------------------|--------------------------------------------|
|---------------------------------|--------------------------------------------|
|-7-7-7-7-7-7-7-7-6-6-6-7-7-7-9-9-|-10-10-10-9-9-9-7-7-12-12-12-10-10-10-12-12-|
|-x-x-x-x-x-x-x-x-x-x-x-x-x-x-x-x-|--x--x--x-x-x-x-x-x--x--x--x--x--x--x--x--x-|
|-5-5-5-5-5-5-5-5-4-4-4-5-5-5-7-7-|--8--8--8-7-7-7-5-5-10-10-10--8--8--8-10-10-|
|---------------------------------|--------------------------------------------|


  D5                      C5
|-------------------------------------------------|
|-------------------------------------------------|
|-------------------------------------------------|
|--0--0--0--0--0--0--0--0-10-10-10-10-10-10-10-10-|
|--0--0--0--0--0--0--0--0-10-10-10-10-10-10-10-10-|
|--0--0--0--0--0--0--0--0-10-10-10-10-10-10-10-10-|
|
|-------------------------------------------------|
|-------------------------------------------------|
|-14-14-14-12-12-12-10-10--9--9--9-10-10-10-12-12-|
|--x--x--x--x--x--x--x--x--x--x--x--x--x--x--x--x-|
|-12-12-12-10-10-10--8--8--7--7--7--8--8--8-10-10-|
|-------------------------------------------------|


  Bb5
|----------------------------||
|----------------------------||
|----------------------------||
|-8-----(8)-8-8-8-8-8-8-8-8--||
|-8-----(8)-8-8-8-8-8-8-8-8--||
|-8-----(8)-8-8-8-8-8-8-8-8--||
|
|----------------------------||
|----------------------------||
|-7-14-(14)------------------||
|-x--x-----------------------||
|-5-12-(12)------------------||
|----------------------------||


   Chorus
    $$
    F5
||-----------------------------------------------|
||o----------------------------------------------|
||-----------------------------------------------|
||--3--3--3-3--3--3--3-3---3---3--3-3--3--3--3-3-|
||o-3--3--3-3--3--3--3-3---3---3--3-3--3--3--3-3-|
||--3--3--3-3--3--3--3-3---3---3--3-3--3--3--3-3-|
|
||-----------------------------------------------|
||o----------------------------------------------|
||-------10-9-(9)---10---(10)----10-9-(9)---10---|
||----10----------------------10-----------------|
||o-8--------------------------------------------|
||-----------------------------------------------|


  D5
|------------------------------------------------|
|------------------------------------------------|
|------------------------------------------------|
|--0--0--0-0--0--0--0-0---0---0--0-0--0--0--0-0--|
|--0--0--0-0--0--0--0-0---0---0--0-0--0--0--0-0--|
|--0--0--0-0--0--0--0-0---0---0--0-0--0--0--0-0--|
|
|------------------------------------------------|
|------------------------------------------------|
|-------10-9-(9)---10---(10)----10-9-(9)---10----|
|------------------------------------------------|
|----12----------------------12------------------|
|-12---------------------------------------------|


  1.
  Bb5
|--------------------------------------------|
|--------------------------------------------|
|--------------------------------------------|
|-8-8--8-8--8--8--8-8---8--8--8-8--8--8--8-8-|
|-8-8--8-8--8--8--8-8---8--8--8-8--8--8--8-8-|
|-8-8--8-8--8--8--8-8---8--8--8-8--8--8--8-8-|
|
|--------------------------------------------|
|--------------------------------------------|
|-----10-9-(9)---10---(10)---10-9-(9)---10---|
|--------------------------------------------|
|---8----------------------8-----------------|
|-8------------------------------------------|

[ Tab from: http://www.guitartabs.cc/tabs/a/atreyu/the_remembrance_ballad_tab_ver_5.html ]
  A5                  C5
|-------------------------------------------------||
|------------------------------------------------o||
|-------------------------------------------------||
|-7-7--7-7--7--7--7-7--10--10-10-10-10--10-10-10--||
|-7-7--7-7--7--7--7-7--10--10-10-10-10--10-10-10-o||
|-7-7--7-7--7--7--7-7--10--10-10-10-10--10-10-10--||
|
|-------------------------------------------------||
|------------------------------------------------o||
|-----10-9-(9)---10---(10)----10--9-(9)-----------||
|------------------------------------------10-----||
|---7-----------------------7--------------------o||
|-7-----------------------------------------------||


  2.
  Bb5
|--------------------------------------------|
|--------------------------------------------|
|--------------------------------------------|
|-8-8--8-8--8--8--8-8---8--8--8-8--8--8--8-8-|
|-8-8--8-8--8--8--8-8---8--8--8-8--8--8--8-8-|
|-8-8--8-8--8--8--8-8---8--8--8-8--8--8--8-8-|
|
|--------------------------------------------|
|--------------------------------------------|
|-----10-9-(9)---10---(10)---10-9-(9)---10---|
|--------------------------------------------|
|---8----------------------8-----------------|
|-8------------------------------------------|


                                     To Coda
                                     To Coda
  A5                  C5
|----------------------------------------------||
|----------------------------------------------||
|----------------------------------------------||
|-7-7--7-7--7--7--7-7-10-10-10-10-10--10-10-10-||
|-7-7--7-7--7--7--7-7-10-10-10-10-10--10-10-10-||
|-7-7--7-7--7--7--7-7-10-10-10-10-10--10-10-10-||
|
|----------------------------------------------||
|----------------------------------------------||
|-----10-9-(9)---10---12-10--9--9-(9)-10-------||
|----------------------------------------10----||
|---7------------------------------------------||
|-7--------------------------------------------||


 Verse
  Gtr V
                     |
                     o

  Gtr III
|------------------|-------------------------|
|------------------|-------------------------|
|-------7-(7)------|-------7-(7)-----(7)-----|
|-----7------------|-----8-----------------8-|
|-3s5--------------|-3s5---------------------|
|-0----------------|-0-----------------------|
|
| Gtr IV
|------------------|-------------------------|
|------------------|-------------------------|
|------------------|---------<5>-------------|
|---------<5>------|-------------------------|
|------------------|-------------------------|
|------------------|-------------------------|
|
| Gtr I
|------------------|-------------------------|
|------------------|-------------------------|
|------------------|---------------2-(2)b3---|
|------------------|-------------------------|
|------------------|-------------------------|
|------------------|-------------------------|


   |                   |
   /                   /

|--------------------|--------------------------|
|--------------------|--------------------------|
|---------7-(7)------|-------7-(7)-----(7)------|
|-------7------------|-----8-----------------8--|
|--3s=5--------------|-3s5----------------------|
|--0-----------------|-0------------------------|
|
|--------------------|--------------------------|
|--------------------|--------------------------|
|--------------------|---------<5>--------------|
|-----------<5>------|--------------------------|
|--------------------|--------------------------|
|--------------------|--------------------------|
|
|--------------------|--------------------------|
|--------------------|--------------------------|
|-(2)----------------|---------------2-(2)b3----|
|--------------------|--------------------------|
|--------------------|--------------------------|
|--------------------|--------------------------|


  N.C.
|----------------------------------------|-----------------------|
|----------------------------------------|-----------------------|
|-----------7--(7)-----------------------|--------7-(7)----(7)---|
|---------7------------------------------|------8--------------8-|
|--3s=5----------------------------------|--3s5------------------|
|--0-------------------------------------|--0--------------------|
|
|----------------------------------------|-----------------------|
|----------------------------------------|-----------------------|
|----------------------------------------|----------<5>----------|
|--------------<5>-----------------------|-----------------------|
|----------------------------------------|-----------------------|
|----------------------------------------|-----------------------|
|
|     Gtr V
|----------------------------------------|-----------------------|
|-------/10---(10)--10-(10)s8-(8)-(8)s10-|-11--------------------|
|-(2)------------------------------------|-----------------------|
|----------------------------------------|-----------------------|
|----------------------------------------|-----------------------|
|----------------------------------------|-----------------------|


                                                D.S. al Coda
|-------------------------------------|-----------------------||
|-------------------------------------|-----------------------||
|---------7-(7)-----------------------|--------7-(7)----(7)---||
|-------7-----------------------------|------8--------------8-||
|---3s5-------------------------------|--3s5------------------||
|---0---------------------------------|--0--------------------||
|
|-------------------------------------|-----------------------||
|-------------------------------------|-----------------------||
|-------------------------------------|----------<5>----------||
|-----------<5>-----------------------|-----------------------||
|-------------------------------------|-----------------------||
|-------------------------------------|-----------------------||
|
|-------------------------------------|-----------------------||
|-/10------------10-(10)s8-(8)-(8)s10-|-11--------------------||
|-------------------------------------|-----------------------||
|-------------------------------------|-----------------------||
|-------------------------------------|-----------------------||
|-------------------------------------|-----------------------||


 Guitar Solo
  &
  G5
  Gtr I
|-----------------------------------------------|
|-----------------------------------------------|
|-----------------------------------------------|
|-5-----5--5-5--5--5-5-5--5---5-5-5-5----5--5-5-|
|-5-----5--5-5--5--5-5-5--5---5-5-5-5----5--5-5-|
|-5-----5--5-5--5--5-5-5--5---5-5-5-5----5--5-5-|
|
| Gtr II
|               ~~~~~~~~~~~~~~
|-------------------------------3---------------|
|-----------------------------3-----------------|
|-5b7==(5)-----(5)-------(5)r-------5b7r(5)-3-2-|
|-----------------------------------------------|
|-----------------------------------------------|
|-----------------------------------------------|


  Bb5
|-------------------------------------|
|-------------------------------------|
|-------------------------------------|
|-8-8-8-8--8--8-8-8-8-8-8-8--8--8-8-8-|
|-8-8-8-8--8--8-8-8-8-8-8-8--8--8-8-8-|
|-8-8-8-8--8--8-8-8-8-8-8-8--8--8-8-8-|
|
|          ~~~~~~~~~~~~~~~~~~~~~
|-------------------------------------|
|-------------------------------------|
|-3---2-------------------------------|
|-------3-(3)---------------(3)---3-0-|
|-------------------------------------|
|-------------------------------------|


  F5
  Gtr I
|-----------------------------------|
|-----------------------------------|
|-----------------------------------|
|-3-3-3-3-3-3-3-3--3--3-3-3-3-3-3-3-|
|-3-3-3-3-3-3-3-3--3--3-3-3-3-3-3-3-|
|-3-3-3-3-3-3-3-3--3--3-3-3-3-3-3-3-|
|
| Gtr II
| PM----|          ~~~
|-----------------------------------|
|-----------------------------------|
|-----------------------------------|
|-2-3-5-3p2h3p2---(2)-----------2-3-|
|-----------------------------------|
|-----------------------------------|
|
| Gtr V
|-----------------------------------|
|-----------------------------------|
|-----------------------------------|
|-----------------------------------|
|-----------------------------------|
|-----------------------------------|


  C/E
|--------------------------------------------------------------|
|--------------------------------------------------------------|
|--------------------------------------------------------------|
|--2-2-2-2-2-2-2-2--2----2-----2----2-----2----2-----2----2----|
|--3-3-3-3-3-3-3-3--3----3-----3----3-----3----3-----3----3----|
|--2-2-2-2-2-2-2-2--2----2-----2----2-----2----2-----2----2----|
|
|  ~~
|--------------------------------------------------------------|
|--------------------------------------------------------------|
|--------------------------------------------------------------|
|-/5-----------------------------------------------------------|
|--------------------------------------------------------------|
|--------------------------------------------------------------|
|
|                   PM-----------|
|--------------------------------------------------------------|
|---------------------------------------------------15-17---18-|
|----------------------------------------14-15---17------------|
|-----------------------------15-17---19-----------------------|
|------------------15-17---19----------------------------------|
|--------------------------------------------------------------|


  G5
|------------------------------------------------|
|------------------------------------------------|
|------------------------------------------------|
|--5----5-5-5--5--5--5-5---5--5-5-5--5----5--5-5-|
|--5----5-5-5--5--5--5-5---5--5-5-5--5----5--5-5-|
|--5----5-5-5--5--5--5-5---5--5-5-5--5----5--5-5-|
|
|  ~~~~~~~~~~~~~~~~~~~~~~~~~~~~~~~~~~~~~~~~~~~~~~~
|------------------------------------------------|
|------------------------------------------------|
|------------------------------------------------|
|-(5)--------------------------------------------|
|------------------------------------------------|
|------------------------------------------------|
|
|-------------------------------------------20---|
|-18b20-------18-17-18---(18)-------20b22--------|
|------------------------------------------------|
|------------------------------------------------|
|------------------------------------------------|
|------------------------------------------------|


  Bb5
|------------------------------------------------------|
|------------------------------------------------------|
|------------------------------------------------------|
|--8-----8-8--------8------8-8-8-8-8-8-8-8---8--8--8-8-|
|--8-----8-8--------8------8-8-8-8-8-8-8-8---8--8--8-8-|
|--8-----8-8--------8------8-8-8-8-8-8-8-8---8--8--8-8-|
|
|  >
|~~~~~~~~
|------------------------------------------------------|
|------------------------------------------------------|
|------------------------------------------------------|
|-(5)--------------------------------------------------|
|------------------------------------------------------|
|------------------------------------------------------|
|
|                          ~~~~~~~~~~~~~~~~~~~~~
|------------------------------------------------------|
|-20b22======(20)r(20)-18-20---------------(20)---18---|
|------------------------------------------------------|
|------------------------------------------------------|
|------------------------------------------------------|
|------------------------------------------------------|


  F5
  Gtr I
|---------------------------------------------------|
|---------------------------------------------------|
|---------------------------------------------------|
|--3-----3-3-3---3----3-3--3--3--3--3--3---3--3-3-3-|
|--3-----3-3-3---3----3-3--3--3--3--3--3---3--3-3-3-|
|--3-----3-3-3---3----3-3--3--3--3--3--3---3--3-3-3-|
|
| Gtr V
|                                          ~~~~
|-20b22========(20)r-20---18-17---------------------|
|-------------------------------18------------------|
|----------------------------------17-17-(17)-------|
|---------------------------------------------------|
|---------------------------------------------------|
|---------------------------------------------------|


  C/E
|-----------------------------------------------------------------------------------------------||
|-----------------------------------------------------------------------------------------------||
|-----------------------------------------------------------------------------------------------||
|--2----2-----2----2-----2----2-----2----2-----2---------2-----2----2-----2----2-----2----2-----||
|--3----3-----3----3-----3----3-----3----3-----3---------3-----3----3-----3----3-----3----3-----||
|--2----2-----2----2-----2----2-----2----2-----2---------2-----2----2-----2----2-----2----2-----||
|
|  PM-----|
|----------------------------------17-18---20-20b22r(20)---18-20-18---17-18-17------------------||
|-----------------------17-18---20-----------------------------------------------20-17-18---20--||
|------------17-19---20-------------------------------------------------------------------------||
|-17-19---20------------------------------------------------------------------------------------||
|-----------------------------------------------------------------------------------------------||
|-----------------------------------------------------------------------------------------------||


 Pre-Chorus
  G5                   A5
  Gtr I
|--------------------------------------|
|--------------------------------------|
|--------------------------------------|
|--5-5-5-5-5-5---5---5-7-7-7-7-7-7-7-7-|
|--5-5-5-5-5-5---5---5-7-7-7-7-7-7-7-7-|
|--5-5-5-5-5-5---5---5-7-7-7-7-7-7-7-7-|
|
| Gtr II
|--------------------------------------|
|--------------------------------------|
|--7-7-7-7-7-7---7---7-6-6-6-7-7-7-9-9-|
|--x-x-x-x-x-x---x---x-x-x-x-x-x-x-x-x-|
|--5-5-5-5-5-5---5---5-4-4-4-5-5-5-7-7-|
|--------------------------------------|
|
| Gtr V
|  ~~
|--------------------------------------|
|-18-----------(18)\-------------------|
|--------------------------------------|
|--------------------------------------|
|--------------------------------------|
|--------------------------------------|


  Bb5                C5
|--------------------------------------------|
|--------------------------------------------|
|--------------------------------------------|
|--8--8--8-8-8-8-8-8-10-10-10-10-10-10-10-10-|
|--8--8--8-8-8-8-8-8-10-10-10-10-10-10-10-10-|
|--8--8--8-8-8-8-8-8-10-10-10-10-10-10-10-10-|
|
|--------------------------------------------|
|--------------------------------------------|
|-10-10-10-9-9-9-7-7-12-12-12-10-10-10-12-12-|
|--x--x--x-x-x-x-x-x--x--x--x--x--x--x--x--x-|
|--8--8--8-7-7-7-5-5-10-10-10--8--8--8-10-10-|
|--------------------------------------------|
|
|--------------------------------------------|
|--------------------------------------------|
|--------------------------------------------|
|--------------------------------------------|
|--------------------------------------------|
|--------------------------------------------|


                                            D.S.S. al Dbl. Coda
  D5                      C5                Bb5          N.C.
  Gtr I                                                  Gtr VI
                                                         TPTPTPTP
|---------------------------------------------|-------------------||
|---------------------------------------------|-------------------||
|--7--7--7--7--7--7--7--7---------------------|-------------------||
|--7--7--7--7--7--7--7--7-10-10-10----10----8-|-(8)------xSxSxSx\-||
|--5--5--5--5--5--5--5--5-10-10-10----10----8-|-(8)------xSxSxSx\-||
|--0--0--0--0--0--0--0--0-10-10-10----10----8-|-(8)------xSxSxSx\-||
|
| Gtr II
|---------------------------------------------|-------------------||
|---------------------------------------------|-------------------||
|-14-14-14-12-12-12-10-10--9--9--9-10-10-10-7-|-(7)---------------||
|--x--x--x--x--x--x--x--x--x--x--x--x--x--x-x-|-------------------||
|-12-12-12-10-10-10--8--8--7--7--7--8--8--8-5-|-(5)---------------||
|---------------------------------------------|-------------------||


   Outro
    &&
    F5
    Gtr I
||-----------------------------------------------|
||o----------------------------------------------|
||-----------------------------------------------|
||--3--3--3-3--3--3--3-3---3---3--3-3--3--3--3-3-|
||o-3--3--3-3--3--3--3-3---3---3--3-3--3--3--3-3-|
||--3--3--3-3--3--3--3-3---3---3--3-3--3--3--3-3-|
|
|   Gtr II
||-----------------------------------------------|
||o----------------------------------------------|
||-------10-9-(9)---10---(10)----10-9-(9)---10---|
||----10----------------------10-----------------|
||o-8--------------------------------------------|
||-----------------------------------------------|
|
|   Gtr V
||-----------------------------------------------|
||o------10-8-(8)---10---(10)----10-8-(8)---10---|
||-----------------------------------------------|
||----10----------------------10-----------------|
||o-8--------------------------------------------|
||-----------------------------------------------|


  D5
|------------------------------------------------|
|------------------------------------------------|
|------------------------------------------------|
|--0--0--0-0--0--0--0-0---0---0--0-0--0--0--0-0--|
|--0--0--0-0--0--0--0-0---0---0--0-0--0--0--0-0--|
|--0--0--0-0--0--0--0-0---0---0--0-0--0--0--0-0--|
|
|------------------------------------------------|
|------------------------------------------------|
|-------10-9-(9)---10---(10)----10-9-(9)---10----|
|------------------------------------------------|
|----12----------------------12------------------|
|-12---------------------------------------------|
|
|------------------------------------------------|
|-------10-8-(8)---10---(10)----10-8-(8)---10----|
|------------------------------------------------|
|------------------------------------------------|
|----12----------------------12------------------|
|-12---------------------------------------------|


  Bb5
|--------------------------------------------|
|--------------------------------------------|
|--------------------------------------------|
|-8-8--8-8--8--8--8-8---8--8--8-8--8--8--8-8-|
|-8-8--8-8--8--8--8-8---8--8--8-8--8--8--8-8-|
|-8-8--8-8--8--8--8-8---8--8--8-8--8--8--8-8-|
|
|--------------------------------------------|
|--------------------------------------------|
|-----10-9-(9)---10---(10)---10-9-(9)---10---|
|--------------------------------------------|
|---8----------------------8-----------------|
|-8------------------------------------------|
|
|--------------------------------------------|
|-----10-8-(8)---10---(10)---10-8-(8)---10---|
|--------------------------------------------|
|--------------------------------------------|
|---8----------------------8-----------------|
|-8------------------------------------------|


  A5                  C5
|-----------------------------------------------||
|----------------------------------------------o||
|-----------------------------------------------||
|-7-7--7-7--7--7--7-7-10-10-10-10-10--10-10-10--||
|-7-7--7-7--7--7--7-7-10-10-10-10-10--10-10-10-o||
|-7-7--7-7--7--7--7-7-10-10-10-10-10--10-10-10--||
|
|-----------------------------------------------||
|----------------------------------------------o||
|-----10-9-(9)---10---12-10--9--9-(9)-10--------||
|----------------------------------------10-----||
|---7------------------------------------------o||
|-7---------------------------------------------||
|
|-----------------------------------------------||
|-----10-8-(8)---10---11-10--8--8-(8)-10-------o||
|-----------------------------------------9-----||
|-----------------------------------------------||
|---7------------------------------------------o||
|-7---------------------------------------------||


  F5
|-----------|---------*|
|-----------|---------*|
|-----------|---------*|
|--3--------|--(3)----*|
|--3--------|--(3)----*|
|--3--------|--(3)----*|
|
|-----------|---------*|
|-----------|---------*|
|-10--------|-(10)----*|
|-----------|---------*|
|-----------|---------*|
|-----------|---------*|
|
|-----------|---------*|
|-13--------|-(13)----*|
|-----------|---------*|
|-----------|---------*|
|-----------|---------*|
|-----------|---------*|
Comments