Atreyu - The Remembrance Ballad Chords & Tabs

 

The Remembrance Ballad Chords & Tabs

Atreyu Chords & Tabs

Version: 3 Type: Tab 0 ratings
1 star 2 stars 3 stars 4 stars 5 stars
comments

The Remembrance Ballad Tab

Ok this is the intro and the little part after the inrto, ive seen the other guys
tabs on here and there is two guitars playing so it isnt a chord then he plays, the
lead guitarist goes wiht the rythm and plays his own thing. Here's my version, i
dont think its perfect but its pretty close, try playing it and youll like it.

Dadgbe

B=bend P=pull S=slide H=hammer

E---8s10-11-10-11--------------8s10-11-10-11-15-16-18-18-16p15p13-13b-11-10h11-8s---------|
B--8-------------11-13p11-13s-8-----------------------------------------------------------|
G-5--------------------------5------------------------------------------------------------|
D-----------------------------------------------------------------------------------------|
A-----------------------------------------------------------------------------------------|
D-----------------------------------------------------------------------------------------|
[ Tab from: http://www.guitartabs.cc/tabs/a/atreyu/the_remembrance_ballad_tab_ver_3.html ]
E---8s10-11-10-11--------------8s10-11-10-11-15-16-18-18-20-16-13b-11-10h11-8s------------|
B--8-------------11-13p11-13s-8-----------------------------------------------------------|
G-5--------------------------5------------------------------------------------------------|
D-----------------------------------------------------------------------------------------|
A-----------------------------------------------------------------------------------------|
D-----------------------------------------------------------------------------------------|

E---8s10-11-10-11--------------8s10-11-10-11-15-16-18-20-18p16-15-18-16-15----------------|
B--8-------------11-13p11-13s-8-------------------------------------------18-16-15--------|
G-5--------------------------5----------------------------------------------------15-12---|
D-----------------------------------------------------------------------------------------|
A-----------------------------------------------------------------------------------------|
D-----------------------------------------------------------------------------------------|

E-----------------------------------------------------------------------------------------|
B-----------------------------------------------------------------------------------------|
G-8-7-----8-7---8-7----8-7---9b-8-7-5-7s8-------------------------------------------------|
D----8s10----8s6---8s10---8s6-------------------------------------------------------------|
A-----------------------------------------------------------------------------------------|
D-----------------------------------------------------------------------------------------|

That is a very good tab right there, have fun its tricky but sounds really cool, how
does this guy come up with this stuff??? Oh well, later
Need help or want me to tab somthing for you? Aim-surfinsouthshore Email-surfinsouthshore@hotmail.com
Check out my other tabs and give me some stars!!!
Thanks
Comments