Atreyu - The Remembrance Ballad Chords & Tabs

 

The Remembrance Ballad Chords & Tabs

Atreyu Chords & Tabs

Version: 2 Type: Tab 0 ratings
1 star 2 stars 3 stars 4 stars 5 stars
comments

The Remembrance Ballad Tab

-----------------------------------------------------------------------------
		        Atreyu - The Remembrance Ballad
-----------------------------------------------------------------------------

Tabbed by: Steph
Email: Cartmans_evil_twin4182@yahoo.com

Tuning: Normal.



Introduction and Verse




Intro (x2):

e|-6--8--10--11--10--11--8--6--8h6--8~/--------------------------------------|
B|---------------------------------------------------------------------------|
G|---------------------------------------------------------------------------|
D|---------------------------------------------------------------------------|
A|---------------------------------------------------------------------------|
E|---------------------------------------------------------------------------|
[ Tab from: http://www.guitartabs.cc/tabs/a/atreyu/the_remembrance_ballad_tab_ver_2.html ]
e|-6--8--10--11--10h11--14--16--18-18--18h16--14--15/13--10--10h11--8--------|
B|---------------------------------------------------------------------------|
G|---------------------------------------------------------------------------|
D|---------------------------------------------------------------------------|
A|---------------------------------------------------------------------------|
E|---------------------------------------------------------------------------|


"These days are closing in.."

Verse (x2):

e|-6--8--10--11--10--11--8--6--8h6--8~/--------------------------------------|
B|---------------------------------------------------------------------------|
G|---------------------------------------------------------------------------|
D|---------------------------------------------------------------------------|
A|---------------------------------------------------------------------------|
E|---------------------------------------------------------------------------|

e|-6--8--10--11--10h11--14--16--18-18--20--16--15/13--10--10h11--8-----------|
B|---------------------------------------------------------------------------|
G|---------------------------------------------------------------------------|
D|---------------------------------------------------------------------------|
A|---------------------------------------------------------------------------|
E|---------------------------------------------------------------------------|
Comments