Atreyu - The Remembrance Ballad Chords & Tabs

 

The Remembrance Ballad Chords & Tabs

Atreyu Chords & Tabs

Version: 3 Type: Bass Tab 0 ratings
1 star 2 stars 3 stars 4 stars 5 stars
comments

The Remembrance Ballad Bass Tab

   
-------------------------------------------------------------------------------
	The Remembrance Ballad - Atreyu
-------------------------------------------------------------------------------

Tabbed By : Vic Jackson	(poisonmywell)
e-mail: vjackson83@msn.com

Tuning: CGCF

I felt obligated to submit an accurate transciption of this song since it is one
of my personal favorites. The Remembrance Ballad should be a breeze for most non-
beginners; however, there are a few tricky spots. For example, towards the end of
the first verse, there is some very fast picking followed by a slowed-down triplet.
I had to listen to the recording several times before picking the rhythm of this
part up. Also, don't let the kick drum speed your picking during the second verse.
If you listen closely, you can hear the bass drum is striking on the off-beat. Other
than that, It shouldn't be to hard. 

I guarantee this tab to be 100% correct, so don't be afraid to email with any questions
or complaints. Enjoy!

INTRO (0:01)

F|---------------------------------------------------------------------------|
C|---------------------------------------------------------------------------|
G|-------------1----(1)/----------------1----(1)-----------------------------|
C|-0----(0)-----------------0----(0)-----------------------------------------|

F|---------------------------------------------------------------------------|
C|---------------------------------------------------------------------------|
G|-------------------------------------1-1-1-1--1-1-1-1--1-1-1-1--1-1-1-1----|
C|-0-0-0-0--0-0-0-0--0-0-0-0--0-0-0-0----------------------------------------|

F|---------------------------------------------------------------------------|
C|---------------------------------------------------------------------------|
G|-------------------------------------1-1-1-1--1-1-1-1--1-1-1-1--1-1-1-1----|
C|-0-0-0-0--0-0-0-0--0-0-0-0--0-0-0-0----------------------------------------|

F|---------------------------------------------------------------------------|
C|---------------------------------------------------------------------------|
G|-------------------------------------1-1-1-1--1-1-1-1--1-1-1-1--1-1-1-1----|
C|-0-0-0-0--0-0-0-0--0-0-0-0--0-0-0-0----------------------------------------|

F|---------------------------------------------------------------------------|
C|---------------------------------------------------------------------------|
G|-------------------------------------1-1-1-1--1-1-1-1--1-1-1-1--1-1-1-1-0--|
C|-0-0-0-0--0-0-0-0--0-0-0-0--0-0-0-0----------------------------------------|

F|---------------------------------------------------------------------------|
C|---------------------------------------------------------------------------|
G|-(0)----(0)----(0)----(0)--------------------------------------------------|
C|---------------------------------------------------------------------------|

FIRST VERSE (0:43)

F|---------------------------------------------------------------------------|
C|---------------------------------------------------------------------------|
G|----------------------------------1-1--1-1-(1)---1-1-1-(1)-1-1-------------|
C|-0-0--0-0-(0)---0-0-0-(0)--0-0---------------------------------------------|
   
F|---------------------------------------------------------------------------|
C|---------------------------------------------------------------------------|
G|----------------------------------1-1--1-1-(1)---1-1-1-(1)-1-1-------------|
C|-0-0--0-0-(0)---0-0-0-(0)--0-0---------------------------------------------|

F|---------------------------------------------------------------------------|
C|---------------------------------------------------------------------------|
G|--------------------------------------1-1-1-1-1-1-1-1----1-1-1-(1)-1-1-----|
C|-0-0-0-0-0-0-0-0----0-0-0-(0)--0-0-----------------------------------------|

F|---------------------------------------------------------------------------|
C|---------------------------------------------------------------------------|
G|--------------------------------------1-1-1-1-1-1-1-1----1-1-1-(1)-1-1-1---|
C|-0-0-0-0-0-0-0-0----0-0-0-(0)--0-0-----------------------------------------|

PRE-CHORUS (1:09)

F|---------------------------------------------------------------------------|
C|---------------------------------------------------------------------------|
G|-------------------------------------1-1-1-1--1-1-1-1--3-3-3-3--3-3-3-3----|
C|-5-5-5-5--5-5-5-5--7-7-7-7--7-7-7-7----------------------------------------|

F|---------------------------------------------------------------------------|
C|---------------------------------------------------------------------------|
G|-------------------3-3-3-3--3-3-3-3--1-1-1-1--1-1-1-1--1-1-1-1--1-1-1-1----|
C|-0-0-0-0--0-0-0-0----------------------------------------------------------|

CHORUS (1:21)

F|---------------------------------------------------------------------------|
C|---------------------------------------------------------------------------|
G|---------------------------------------------------------------------------|
C|-3-3-3-3--3-3-3-3--3-3-3-3--3-3-3-3--0-0-0-0--0-0-0-0--0-0-0-0--0-0-0-0----|

F|---------------------------------------------------------------------------|
C|---------------------------------------------------------------------------|
G|-1-1-1-1--1-1-1-1--1-1-1-1--1-1-1-1--0-0-0-0--0-0-0-0--3-3-3-3--3-3-3-3----|
C|---------------------------------------------------------------------------|

F|---------------------------------------------------------------------------|
C|---------------------------------------------------------------------------|
G|---------------------------------------------------------------------------|
C|-3-3-3-3--3-3-3-3--3-3-3-3--3-3-3-3--0-0-0-0--0-0-0-0--0-0-0-0--0-0-0-0----|

F|---------------------------------------------------------------------------|
C|---------------------------------------------------------------------------|
G|-1-1-1-1--1-1-1-1--1-1-1-1--1-1-1-1--0-0-0-0--0-0-0-0--3-3-3-3--3-3-3-3----|
C|---------------------------------------------------------------------------|

SECOND VERSE (1:45)

F|---------------------------------------------------------------------------|
C|---------------------------------------------------------------------------|
G|-0--5-7-8-7-3-5-(5)----------0--5-7-8-7-3-1-(1)---1-1-1/3-3----------------|
C|---------------------0-(0)-------------------------------------------------|

F|---------------------------------------------------------------------------|
C|---------------------------------------------------------------------------|
G|-0--5-7-8-7-3-5-(5)----------0--5-7-8-7-3-1-(1)---1-1-1/3-3----------------|
C|---------------------0-(0)-------------------------------------------------|

F|---------------------------------------------------------------------------|
C|---------------------------------------------------------------------------|
G|-0--5-7-8-7-3-5-(5)----------0--5-7-8-7-3-1-(1)---X-1/3-3------------------|
C|---------------------0-(0)-------------------------------------------------|
[ Tab from: http://www.guitartabs.cc/tabs/a/atreyu/the_remembrance_ballad_btab_ver_3.html ]
F|---------------------------------------------------------------------------|
C|---------------------------------------------------------------------------|
G|-0--5-7-8-7-3-5-(5)----------0--5-7-8-7-3-1-(1)---X-1-1/3-3----------------|
C|---------------------0-(0)-------------------------------------------------|

PRE-CHORUS (2:12)

F|---------------------------------------------------------------------------|
C|---------------------------------------------------------------------------|
G|-------------------------------------1-1-1-1--1-1-1-1--3-3-3-3--3-3-3-3----|
C|-5-5-5-5--5-5-5-5--7-7-7-7--7-7-7-7----------------------------------------|

F|---------------------------------------------------------------------------|
C|---------------------------------------------------------------------------|
G|-------------------3-3-3-3--3-3-3-3--1-1-1-1--1-1-1-1--1-1-1-1--1-1-1-1----|
C|-0-0-0-0--0-0-0-0----------------------------------------------------------|

CHORUS (2:25)

F|---------------------------------------------------------------------------|
C|---------------------------------------------------------------------------|
G|---------------------------------------------------------------------------|
C|-3-3-3-3--3-3-3-3--3-3-3-3--3-3-3-3--0-0-0-0--0-0-0-0--0-0-0-0--0-0-0-0----|

F|---------------------------------------------------------------------------|
C|---------------------------------------------------------------------------|
G|-1-1-1-1--1-1-1-1--1-1-1-1--1-1-1-1--0-0-0-0--0-0-0-0--3-3-3-3--3-3-3-3----|
C|---------------------------------------------------------------------------|

F|---------------------------------------------------------------------------|
C|---------------------------------------------------------------------------|
G|---------------------------------------------------------------------------|
C|-3-3-3-3--3-3-3-3--3-3-3-3--3-3-3-3--0-0-0-0--0-0-0-0--0-0-0-0--0-0-0-0----|

F|---------------------------------------------------------------------------|
C|---------------------------------------------------------------------------|
G|-1-1-1-1--1-1-1-1--1-1-1-1--1-1-1-1--0-0-0-0--0-0-0-0--3-3-3-3--3-3-3-3----|
C|---------------------------------------------------------------------------|

GUITAR SOLO (2:50)

F|---------------------------------------------------------------------------|
C|---------------------------------------------------------------------------|
G|-------------------------------------1-1-1-1--1-1-1-1--1-1-1-1--1-1-1-1----|
C|-5-5-5-5--5-5-5-5--5-5-5-5--5-5-5-5----------------------------------------|

F|---------------------------------------------------------------------------|
C|---------------------------------------------------------------------------|
G|---------------------------------------------------------------------------|
C|-3-3-3-3--3-3-3-3--3-3-3-3--3-3-3-3--2-2-2-2--2-2-2-2--2-2-2-2--2-2-2-2----|

F|---------------------------------------------------------------------------|
C|---------------------------------------------------------------------------|
G|-------------------------------------1-1-1-1--1-1-1-1--1-1-1-1--1-1-1-1----|
C|-5-5-5-5--5-5-5-5--5-5-5-5--5-5-5-5----------------------------------------|

F|---------------------------------------------------------------------------|
C|---------------------------------------------------------------------------|
G|---------------------------------------------------------------------------|
C|-3-3-3-3--3-3-3-3--3-3-3-3--3-3-3-3--2-2-2-2--2-2-2-2--2-2-2-2--2-2-2-2----|

PRE-CHORUS (3:15)

F|---------------------------------------------------------------------------|
C|---------------------------------------------------------------------------|
G|-------------------------------------1-1-1-1--1-1-1-1--3-3-3-3--3-3-3-3----|
C|-5-5-5-5--5-5-5-5--7-7-7-7--7-7-7-7----------------------------------------|

F|---------------------------------------------------------------------------|
C|---------------------------------------------------------------------------|
G|-------------------3-3-3-3--3-3-3-3--1----(1)----(1)----(1)----------------|
C|-0-0-0-0--0-0-0-0----------------------------------------------------------|

CHORUS (3:27)

F|---------------------------------------------------------------------------|
C|---------------------------------------------------------------------------|
G|---------------------------------------------------------------------------|
C|-3-3-3-3--3-3-3-3--3-3-3-3--3-3-3-3--0-0-0-0--0-0-0-0--0-0-0-0--0-0-0-0----|

F|---------------------------------------------------------------------------|
C|---------------------------------------------------------------------------|
G|-1-1-1-1--1-1-1-1--1-1-1-1--1-1-1-1--0-0-0-0--0-0-0-0--3-3-3-3--3-3-3-3----|
C|---------------------------------------------------------------------------|

F|---------------------------------------------------------------------------|
C|---------------------------------------------------------------------------|
G|---------------------------------------------------------------------------|
C|-3-3-3-3--3-3-3-3--3-3-3-3--3-3-3-3--0-0-0-0--0-0-0-0--0-0-0-0--0-0-0-0----|

F|---------------------------------------------------------------------------|
C|---------------------------------------------------------------------------|
G|-1-1-1-1--1-1-1-1--1-1-1-1--1-1-1-1--0-0-0-0--0-0-0-0--3-3-3-3--3-3-3-3----|
C|---------------------------------------------------------------------------|

F|---------------------------------------------------------------------------|
C|---------------------------------------------------------------------------|
G|---------------------------------------------------------------------------|
C|-3-3-3-3--3-3-3-3--3-3-3-3--3-3-3-3--0-0-0-0--0-0-0-0--0-0-0-0--0-0-0-0----|

F|---------------------------------------------------------------------------|
C|---------------------------------------------------------------------------|
G|-1-1-1-1--1-1-1-1--1-1-1-1--1-1-1-1--0-0-0-0--0-0-0-0--3-3-3-3--3-3-3-3----|
C|---------------------------------------------------------------------------|

F|---------------------------------------------------------------------------|
C|---------------------------------------------------------------------------|
G|---------------------------------------------------------------------------|
C|-3-3-3-3--3-3-3-3--3-3-3-3--3-3-3-3--0-0-0-0--0-0-0-0--0-0-0-0--0-0-0-0----|

F|---------------------------------------------------------------------------|
C|---------------------------------------------------------------------------|
G|-1-1-1-1--1-1-1-1--1-1-1-1--1-1-1-1--0-0-0-0--0-0-0-0--3-3-3-3--3-3-3-3----|
C|------------------------------------------------------------------------3--|

F|---------------------------------------------------------------------------|
C|---------------------------------------------------------------------------|
G|---------------------------------------------------------------------------|
C|-(3)----(3)----(3)----(3)--------------------------------------------------|



| /  slide up
| \  slide down
| h  hammer-on
| p  pull-off
| ~  vibrato
| +  harmonic
| x  Mute note
===============================================================================
Comments