Atreyu - The Crimson Chords & Tabs

 

The Crimson Chords & Tabs

Atreyu Chords & Tabs

Version: 5 Type: Tab 0 ratings
1 star 2 stars 3 stars 4 stars 5 stars
comments

The Crimson Tab

   
THE CRIMSON
As recorded by Atreyu
(From the 2004 Album THE CURSE)
Words and Music by Atreyu
Arranged by Atreyu

Gtr I (C G C F A D) - 'Untitled'
Gtr II (C G C F A D) - 'Untitled'
Gtr III (C G C F A D) - 'Untitled'
Gtr IV (C G C F A D) - 'Untitled'
Gtr V (C G C F A D) - 'Untitled'
Gtr VI (C G C F A D) - 'Untitled'

 Intro
  Fast Rock Q=160
  N.C.
 4/4
  Gtr I
|-------------------|-----------------|---------0-----1-|-----3---1h3p1------|
|---------0h1p0-----|-3-----1-----0h1-|-----1-----1-----|-1-----1-------1----|
|-----2---------2---|---2-----2-------|---2---2-----2---|---2-------------2--|
|---2---2---------2-|-----2-----2-----|-3---------------|--------------------|
|-0-----------------|-----------------|-----------------|--------------------|
|-------------------|-----------------|-----------------|--------------------|


  N.C.
  Gtr I
|-------------------|-----------------|---------0-----1-|-----3---1h=3p1-----||
|---------0h1p0-----|-3-----1-----0h1-|-----1-----1-----|-1-----1--------1---||
|-----2---------2---|---2-----2-------|---2---2-----2---|---2--------------2-||
|---2---2---------2-|-----2-----2-----|-3---------------|--------------------||
|-0-----------------|-----------------|-----------------|--------------------||
|-------------------|-----------------|-----------------|--------------------||
|
| Gtr VI
|                                                         TP      TP
|-------------------|-----------------|-----------------|--------------------||
|-------------------|-----------------|-----------------|--------------------||
|-------------------|-----------------|-----------------|--------------------||
|-------------------|-----------------|-----------------|-xS======x\---------||
|-------------------|-----------------|-----------------|-xS======x\---------||
|-------------------|-----------------|-----------------|-xS======x\---------||


   Pre-Verse
    Faster Q=164
    A5
    Gtr I
||--------------------|-----------------|
||o---------0h1p0-----|-3-----1-----0h1-|
||------2---------2---|---2-----2-------|
||----2---2---------2-|-----2-----2-----|
||o-0-----------------|-----------------|
||--------------------|-----------------|
|
|   Gtr III
||--------------------|-----------------|
||o-------------------|-----------------|
||--------------------|-----------------|
||--7-7-7-7-7---7-7-7-|-7-7-7-7-7-7-7-7-|
||o-7-7-7-7-7---7-7-7-|-7-7-7-7-7-7-7-7-|
||--7-7-7-7-7---7-7-7-|-7-7-7-7-7-7-7-7-|


  F5                G5
                                        3x
|---------0-----1-|-----3---1h3p1-------||
|-----1-----1-----|-1-----1-------1----o||
|---2---2-----2---|---2-------------2---||
|-3---------------|---------------------||
|-----------------|--------------------o||
|-----------------|---------------------||
|
|                                       3x
|-----------------|---------------------||
|-----------------|--------------------o||
|-----------------|---------------------||
|-3-3-3-3-3-3-3-3-|-5-5-5-5-5---5-5-5---||
|-3-3-3-3-3-3-3-3-|-5-5-5-5-5---5-5-5--o||
|-3-3-3-3-3-3-3-3-|-5-5-5-5-5---5-5-5---||


  A5                                    F5                G5
|-------------------|-----------------|---------0-----1-|-----3---1h3p1-----||
|---------0h1p0-----|-3-----1-----0h1-|-----1-----1-----|-1-----1-------1---||
|-----2---------2---|---2-----2-------|---2---2-----2---|---2-------------2-||
|---2---2---------2-|-----2-----2-----|-3---------------|-------------------||
|-0-----------------|-----------------|-----------------|-------------------||
|-------------------|-----------------|-----------------|-------------------||
|
|-------------------|-----------------|-----------------|-------------------||
|-------------------|-----------------|-----------------|-------------------||
|-------------------|-----------------|-----------------|-------------------||
|-7-7-7-7-7---7-7-7-|-7-7-7-7-7-7-7-7-|-3-3-3-3-3-3-3-3-|-5-5-5-5-----5-5-5-||
|-7-7-7-7-7---7-7-7-|-7-7-7-7-7-7-7-7-|-3-3-3-3-3-3-3-3-|-5-5-5-5-----5-5-5-||
|-7-7-7-7-7---7-7-7-|-7-7-7-7-7-7-7-7-|-3-3-3-3-3-3-3-3-|-5-5-5-5-----5-5-5-||


 Verse
  Asus2                        Am
  Gtrs III, IV
|---------------|------------|---------------------|---------------|
|---------------|------------|---------------------|---------------|
|---------------|------------|---------------------|---------------|
|-9-9-9---9-9-9-|-----9-9-9--|-10-10-10---10-10-10-|-----10-10-10--|
|-7-7-7---7-7-7-|-----7-7-7--|--7--7--7----7--7--7-|------7--7--7--|
|-7-7-7---7-7-7-|-----7-7-7--|--7--7--7----7--7--7-|------7--7--7--|


  F5                           G               N.C.
|---------------|------------|---------------|---------------||
|---------------|------------|---------------|---------------||
|---------------|-----5-5-5--|---------------|--------<5>----||
|-3-3-3---3-3-3-|-----3-3-3--|-9-9-9---9-9-9-|--x-x-x--------||
|-3-3-3---3-3-3-|-----3-3-3--|-5-5-5---5-5-5-|--x-x-x--------||
|-3-3-3---3-3-3-|-----3-3-3--|-5-5-5---5-5-5-|--x-x-x--------||


 Pre-Chorus
  Asus2
        PM|         PM----|
|-----------------|-----------------|
|-----------------|-----------------|
|-----------------|-----------------|
|-9-9-9-----9-9-9-|---------9-9-9-9-|
|-7-7-7-7-7-7-7-7-|-7-7-7-7-7-7-7-7-|
|-7-7-7-7-7-7-7-7-|-7-7-7-7-7-7-7-7-|


  Am
           PM|            PM----|
|-----------------------|---------------------|
|-----------------------|---------------------|
|-----------------------|---------------------|
|-10-10-10-----10-10-10-|---------10-10-10-10-|
|--7--7--7-7-7--7--7--7-|-7-7-7-7--7--7--7--7-|
|--7--7--7-7-7--7--7--7-|-7-7-7-7--7--7--7--7-|


  F5                                  G
  Gtrs III, IV
        PM|         PM----|                 PM|
|-----------------|-----------------|-----------------|-------------------||
|-----------------|-----------------|-----------------|-------------------||
|-5-5-5-----5-5-5-|---------5-5-5-5-|-----------------|-------------------||
|-3-3-3-----3-3-3-|---------3-3-3-3-|-9-9-9-----9-9-9-|-9-9-9-9--9--9-9-9-||
|-3-3-3-3-3-3-3-3-|-3-3-3-3-3-3-3-3-|-5-5-5-5-5-5-5-5-|-5-5-5-5--5--5-5-5-||
|-3-3-3-3-3-3-3-3-|-3-3-3-3-3-3-3-3-|-5-5-5-5-5-5-5-5-|-5-5-5-5--5--5-5-5-||
|
| Gtr V
|-----------------|-----------------|-----------------|-------------------||
|-----------------|-----------------|-----------------|-------------------||
|-----------------|-----------------|-----------4-4-4-|-5-5-5-4-(4)-------||
|-----------------|-----------------|-----------------|-------------------||
|-----------------|-----------------|-----------------|-------------------||
|-----------------|-----------------|-----------------|-------------------||


 Chorus
  $
  F5          G5                 A5
  Gtr III
|---------------|------------------|-------------------|-------------------|
|---------------|------------------|-------------------|-------------------|
|---------------|------------------|-------------------|-------------------|
|-3--3--3-3-3-5-|-(5)-5-5--5-5-5-7-|-(7)-7-7-7-7-7-7-7-|-(7)-7-7-7-7-7-7-7-|
|-3--3--3-3-3-5-|-(5)-5-5--5-5-5-7-|-(7)-7-7-7-7-7-7-7-|-(7)-7-7-7-7-7-7-7-|
|-3--3--3-3-3-5-|-(5)-5-5--5-5-5-7-|-(7)-7-7-7-7-7-7-7-|-(7)-7-7-7-7-7-7-7-|
|
| Gtr IV
|---------------|------------------|-------------------|-------------------|
|---------------|------------------|-------------------|-------------------|
|-5--5--5-5-5-7-|-(7)-7-7--7-7-7-5-|-(5)-5-5-5-5-5-5-5-|-(5)-5-5-4-4-4-4-4-|
|-x--x--x-x-x-x-|-----x-x--x-x-x-x-|-----x-x-x-x-x-x-x-|-----x-x-x-x-x-x-x-|
|-3--3--3-3-3-5-|-(5)-5-5--5-5-5-3-|-(3)-3-3-3-3-3-3-3-|-(3)-3-3-2-2-2-2-2-|
|---------------|------------------|-------------------|-------------------|


  F5          G5                 A5
|---------------|------------------|
|---------------|------------------|
|---------------|------------------|
|-3--3--3-3-3-5-|-(5)-5-5--5-5-5-7-|
|-3--3--3-3-3-5-|-(5)-5-5--5-5-5-7-|
|-3--3--3-3-3-5-|-(5)-5-5--5-5-5-7-|
|
|---------------|------------------|
|---------------|------------------|
|-5--5--5-5-5-7-|-(7)-7-7--7-7-7-5-|
|-x--x--x-x-x-x-|-----x-x--x-x-x-x-|
|-3--3--3-3-3-5-|-(5)-5-5--5-5-5-3-|
|---------------|------------------|


                                            F5
|---------------------|-----------------------|
|---------------------|-----------------------|
|---------------------|-----------------------|
|-(7)-7-7-7-7-7--7--7-|-(7)-7--7--7--7--7-7-3-|
|-(7)-7-7-7-7-7--7--7-|-(7)-7--7--7--7--7-7-3-|
|-(7)-7-7-7-7-7--7--7-|-(7)-7--7--7--7--7-7-3-|
|
|---------------------|-----------------------|
|---------------------|-----------------------|
|-(5)-5-5---5-4-(4)-7-|-(7)-5-(5)-4-(4)-5-5-5-|
|-----x-x---x-x-----x-|-----x-----x-----x-x-x-|
|-(3)-3-3---3-2-(2)-5-|-(5)-3-(3)-2-(2)-3-3-3-|
|---------------------|-----------------------|


  F5              G5                  E5
|-------------------|-------------------|
|-------------------|-------------------|
|-------------------|-------------------|
|-(3)-3-3-3-3-3-3-5-|-(5)-5-5-5-5-5-5-2-|
|-(3)-3-3-3-3-3-3-5-|-(5)-5-5-5-5-5-5-2-|
|-(3)-3-3-3-3-3-3-5-|-(5)-5-5-5-5-5-5-2-|
|
|-------------------|-------------------|
|-------------------|-------------------|
|-(5)-5-5-5-5-5-5-7-|-(7)-7-7-7-7-7-7-9-|
|-----x-x-x-x-x-x-x-|-----x-x-x-x-x-x-x-|
|-(3)-3-3-3-3-3-3-5-|-(5)-5-5-5-5-5-5-7-|
|-------------------|-------------------|


                      F5
|-----------------------|-------------------|
|-----------------------|-------------------|
|-----------------------|-------------------|
|-(2)-2-2--2--2--2--2-3-|-(3)-3-3-3-3-3-3-3-|
|-(2)-2-2--2--2--2--2-3-|-(3)-3-3-3-3-3-3-3-|
|-(2)-2-2--2--2--2--2-3-|-(3)-3-3-3-3-3-3-3-|
|
|-----------------------|-------------------|
|-----------------------|-------------------|
|-(9)-9-9-16-16-16-16-5-|-(5)-5-5-5-5-5-5-5-|
|-----x-x--x--x--x--x-x-|-----x-x-x-x-x-x-x-|
|-(7)-7-7-14-14-14-14-3-|-(3)-3-3-3-3-3-3-3-|
|-----------------------|-------------------|


                                                To Coda
  F5              G5
|-------------------|-------------------|------------|--------||
|-------------------|-------------------|------------|--------||
|-------------------|-------------------|------------|--------||
|-(3)-3-3-3-3-3-3-5-|-(5)-5-5-5-5-5-5-5-|-(5)--------|-(5)----||
|-(3)-3-3-3-3-3-3-5-|-(5)-5-5-5-5-5-5-5-|-(5)--------|-(5)----||
|-(3)-3-3-3-3-3-3-5-|-(5)-5-5-5-5-5-5-5-|-(5)--------|-(5)----||
|
|-------------------|-------------------|------------|--------||
|-------------------|-------------------|------------|--------||
|-(5)-5-5-5-5-5-5-7-|-(7)-7-7-7-7-7-7-7-|-(7)--------|-(7)----||
|-----x-x-x-x-x-x-x-|-----x-x-x-x-x-x-x-|------------|--------||
|-(3)-3-3-3-3-3-3-5-|-(5)-5-5-5-5-5-5-5-|-(5)--------|-(5)----||
|-------------------|-------------------|------------|--------||


 Bridge
  A5              Asus2   A5
  Gtrs III, IV
  PM------------|         PM-------------
|----------------------|----------------|
|----------------------|----------------|
|----------------------|----------------|
|-----------------9----|----------------|
|-7-7-7-7-7-7-7-7-7----|--7-7-7-7-7-7-7-|
|-7-7-7-7-7-7-7-7-7----|--7-7-7-7-7-7-7-|


          Asus2   Am
 ---------------|           PM-------|
|-----------------------|------------------|
|-----------------------|------------------|
|-----------------------|------------------|
|---------9-9-9-9-10----|--10-10--10-10----|
|-7-7-7-7-7-7-7-7--7----|---7--7---7--7----|
|-7-7-7-7-7-7-7-7--7----|---7--7---7--7----|


  F5                N.C.  F5              G5
  PM------------|         PM----------------------------|
|----------------------|----------------|------------------------|--------||
|----------------------|----------------|------------------------|--------||
|----------------------|----------------|------------------------|--------||
|-----------------3----|----------------|-----------------5-5--5-|-(5)----||
|-3-3-3-3-3-3-3-3-3----|--3-3-3-3-3-3-3-|-5-5-5-5-5-5-5-5-5-5--5-|-(5)----||
|-3-3-3-3-3-3-3-3-3----|--3-3-3-3-3-3-3-|-5-5-5-5-5-5-5-5-5-5--5-|-(5)----||


 Interlude
  A5              Asus2          A5
  Gtr III
  PM------------|                PM-----------------
|--------------------------|-----------------------|
|--------------------------|-----------------------|
|--------------------------|-----------------------|
|-----------------9--------|-----------------------|
|-7-7-7-7-7-7-7-7-7--------|-----7-7-7-7-7---7---7-|
|-7-7-7-7-7-7-7-7-7--------|-----7-7-7-7-7---7---7-|
|
| Gtr IV
|--------------------------|-----------------------|
|-----------------------/8-|-(8)-------------------|
|---------5-------4s5s4----|---------5---4s5s==4---|
|--------------------------|---------------------7-|
|--------------------------|-----------------------|
|--------------------------|-----------------------|


            Asus2   Am
 -----------------|                  PM----------|
|-----------------------------|-------------------------|
|-----------------------------|-------------------------|
|-----------------------------|-------------------------|
|-----------9-9-9-9-10--------|-----10-10--10-10--------|
|--7--7-7-7-7-7-7-7--7--------|------7--7---7--7--------|
|--7--7-7-7-7-7-7-7--7--------|------7--7---7--7--------|
|
|                                                 ~~~
|-----------------------------|-------------------------|
|--------------------------/8-|-(8)---------------------|
|-----------5--------4s5s4----|------4--5---4s=5--------|
|-(7)-------------------------|------------------[3]----|
|-----------------------------|-------------------------|
|-----------------------------|-------------------------|


  F5                N.C.         F5
  PM------------|                PM-----------------
|--------------------------|-----------------------|
|--------------------------|-----------------------|
|--------------------------|-----------------------|
|-----------------3--------|-----------------------|
|-3-3-3-3-3-3-3-3-3--------|-----3-3-3-3-3---3---3-|
|-3-3-3-3-3-3-3-3-3--------|-----3-3-3-3-3---3---3-|
|
|--------------------------|-----------------------|
|-----------------------/8-|-(8)-------------------|
|---------5-------4s5s4----|---------5---4s5s==4---|
|--------------------------|---------------------7-|
|--------------------------|-----------------------|
|--------------------------|-----------------------|


  G5
 -----------------|
|---------------------------|--------------------|
|---------------------------|--------------------|
|---------------------------|--------------------|
|-------------------5-5---5-|-(5)----------------|
|--5--5-5-5-5-5-5-5-5-5---5-|-(5)----------------|
|--5--5-5-5-5-5-5-5-5-5---5-|-(5)----------------|
|
|                                           ~
|---------------------------|--------------------|
|-------------------------5-|-(5)b6====(5)r-5----|
|-----------5-------4s5s4---|--------------------|
|-(7)-----------------------|--------------------|
|---------------------------|--------------------|
|---------------------------|--------------------|

[ Tab from: http://www.guitartabs.cc/tabs/a/atreyu/the_crimson_tab_ver_5.html ]
  A5              Asus2            A5
  Gtr III
  PM------------|                  PM-----------------
|---------------------------|------------------------|
|---------------------------|------------------------|
|---------------------------|------------------------|
|-----------------9---------|------------------------|
|-7-7-7-7-7-7-7-7-7---------|------7-7-7-7-7---7---7-|
|-7-7-7-7-7-7-7-7-7---------|------7-7-7-7-7---7---7-|
|
| Gtr IV
|---------------------------|------------------------|
|------------------------/8-|--(8)-------------------|
|---------5-------4s5s4-----|----------5---4s5s==4---|
|---------------------------|----------------------7-|
|---------------------------|------------------------|
|---------------------------|------------------------|
|
| Gtr V
|---------------------------|------------------------|
|-----------------------/10-|-(10)-------------------|
|---------------------------|------------------------|
|---------------------------|------------------------|
|---------------------------|------------------------|
|---------------------------|------------------------|


            Asus2   Am
 -----------------|                  PM----------|
|-----------------------------|-------------------------|
|-----------------------------|-------------------------|
|-----------------------------|-------------------------|
|-----------9-9-9-9-10--------|-----10-10--10-10--------|
|--7--7-7-7-7-7-7-7--7--------|------7--7---7--7--------|
|--7--7-7-7-7-7-7-7--7--------|------7--7---7--7--------|
|
|                                                 ~~~
|-----------------------------|-------------------------|
|--------------------------/8-|-(8)---------------------|
|-----------5--------4s5s4----|------4--5---4s=5--------|
|-(7)-------------------------|------------------[3]----|
|-----------------------------|-------------------------|
|-----------------------------|-------------------------|
|
|-----------------------------|-------------------------|
|--------------------------/8-|-(8)---------------------|
|-----------------------------|-------------------------|
|-----------------------------|-------------------------|
|-----------------------------|-------------------------|
|-----------------------------|-------------------------|


  F5                N.C.         N.C.
  PM------------|                PM-----------------
|--------------------------|-----------------------|
|--------------------------|-----------------------|
|--------------------------|-----------------------|
|-----------------3--------|-----------------------|
|-3-3-3-3-3-3-3-3-3--------|-----3-3-3-3-3---3---3-|
|-3-3-3-3-3-3-3-3-3--------|-----3-3-3-3-3---3---3-|
|
|--------------------------|-----------------------|
|-----------------------/8-|-(8)-------------------|
|---------5-------4s5s4----|---------5---4s5s==4---|
|--------------------------|---------------------7-|
|--------------------------|-----------------------|
|--------------------------|-----------------------|
|
|--------------------------|-----------------------|
|-----------------------/5-|-(5)-------------------|
|--------------------------|-----------------------|
|--------------------------|-----------------------|
|--------------------------|-----------------------|
|--------------------------|-----------------------|


                                          D.S. al Coda
  G5
 -------|                   PM
|------------------------|--------------------------------||
|------------------------|--------------------------------||
|------------------------|--------------------------------||
|---------5-5-5-5--5-----|---------5--5--5----5--5--5--5--||
|--5--5-5-5-5-5-5--5-----|--5------5--5--5----5--5--5--5--||
|--5--5-5-5-5-5-5--5-----|--5------5--5--5----5--5--5--5--||
|
|                                             ~~
|------------------------|--------------------------------||
|------------------5-----|-(5)b6========(5)r--5-----------||
|-------5---4s5s4--------|--------------------------------||
|-(7)--------------------|--------------------------------||
|------------------------|--------------------------------||
|------------------------|--------------------------------||
|
|------------------------|--------------------------------||
|-----------------10-----|-10-----10-10-10---10-10-10-10--||
|-----------------12b14==|=12-----12-12-12---12-12-12-12r-||
|------------------------|--------------------------------||
|------------------------|--------------------------------||
|------------------------|--------------------------------||


   Break
    Half-Time Q=80
    &
    N.C.
    Gtr I
||--------3-(3)-----1-(1)-----0-(0)---0h1-|
||o---1---------1---------1---------1-----|
||----------------------------------------|
||--3---3---------3---------3-------------|
||o---------------------------------------|
||----------------------------------------|
|
|   Gtr II
||----------------------------------------|
||o---------------------------------------|
||----5---5-----5---5-----5---5-----5---5-|
||--3---3----3----3----3----3----3----3---|
||o---------------------------------------|
||----------------------------------------|


|-------3-(3)-----1-(1)-----0-(0)---0----|
|---1---------1---------1---------1------|
|----------------------------------------|
|----------------------------------------|
|-0---0---------0---------0--------------|
|----------------------------------------|
|
|----------------------------------------|
|----------------------------------------|
|---2---2-----2---2-----2---2-----2---2--|
|----------------------------------------|
|-0---0----0----0----0----0----0----0----|
|----------------------------------------|


  N.C.
|-------3-(3)-----1-(1)-----0-(0)---0---|
|---1---------1---------1---------1-----|
|---------------------------------------|
|---------------------------------------|
|-1---1---------1---------1-------------|
|---------------------------------------|
|
|---------------------------------------|
|---------------------------------------|
|---2---2-----2---2-----2---3-----2---2-|
|---------------------------------------|
|-1---1----1----1----1----1----1----1---|
|---------------------------------------|


|-------3-(3)-----------------0--------||
|---1---------1---------1-------------o||
|---------------------------3----------||
|--------------------------------------||
|-0---0---------0-1-(1)---1-----------o||
|--------------------------------------||
|
|--------------------------------------||
|-------------------------------------o||
|---2---2-----2---2-----2---3---2---2--||
|--------------------------------------||
|-0---0----0----0----0----0---0---0---o||
|--------------------------------------||


   Bridge
    a Tempo Q=160
    N.C.
    Gtrs III, IV
||------------------|-----------------|
||o-----------------|-----------------|
||--3-3-3-3-3-3-3-3-|-5-5-5-5-5-5-5-5-|
||--x-x-x-x-x-x-x-x-|-x-x-x-x-x-x-x-x-|
||o-1-1-1-1-1-1-1-1-|-3-3-3-3-3-3-3-3-|
||------------------|-----------------|


|-----------------|-----------------------|
|-----------------|-----------------------|
|-7-7-7-7-7-7-7-7-|-14-14-14-12-12-9-9-9--|
|-x-x-x-x-x-x-x-x-|--x--x--x--x--x-x-x-x--|
|-5-5-5-5-5-5-5-5-|-12-12-12-10-10-7-7-7--|
|-----------------|-----------------------|


  N.C.
|-------------------------|-------------------------|
|-------------------------|-------------------------|
|-10-10-10-10-10-10-10-10-|-12-12-12-12-12-12-12-12-|
|--x--x--x--x--x--x--x--x-|--x--x--x--x--x--x--x--x-|
|--8--8--8--8--8--8--8--8-|-10-10-10-10-10-10-10-10-|
|-------------------------|-------------------------|


|-------------------------|--------------------------||
|-------------------------|-------------------------o||
|-17-17-17-17-17-17-17-17-|-17-17-17-17-17-17-17-17--||
|--x--x--x--x--x--x--x--x-|--x--x--x--x--x--x--x--x--||
|-15-15-15-15-15-15-15-15-|-15-15-15-15-15-15-15-15-o||
|-------------------------|--------------------------||


 Breakdown Chorus
  Gb5         Ab5                Bb5
  Gtr III
|---------------|------------------|-------------------|-------------------|
|---------------|------------------|-------------------|-------------------|
|---------------|------------------|-------------------|-------------------|
|-4--4--4-4-4-6-|-(6)-6-6--6-6-6-8-|-(8)-8-8-8-8-8-8-8-|-(8)-8-8-8-8-8-8-8-|
|-4--4--4-4-4-6-|-(6)-6-6--6-6-6-8-|-(8)-8-8-8-8-8-8-8-|-(8)-8-8-8-8-8-8-8-|
|-4--4--4-4-4-6-|-(6)-6-6--6-6-6-8-|-(8)-8-8-8-8-8-8-8-|-(8)-8-8-8-8-8-8-8-|
|
| Gtr IV
|---------------|------------------|-------------------|-------------------|
|---------------|------------------|-------------------|-------------------|
|-6--6--6-6-6-8-|-(8)-8-8--8-8-8-6-|-(6)-6-6-6-6-6-6-6-|-(6)-6-6-5-5-5-5-5-|
|-x--x--x-x-x-x-|-----x-x--x-x-x-x-|-----x-x-x-x-x-x-x-|-----x-x-x-x-x-x-x-|
|-4--4--4-4-4-6-|-(6)-6-6--6-6-6-4-|-(4)-4-4-4-4-4-4-4-|-(4)-4-4-3-3-3-3-3-|
|---------------|------------------|-------------------|-------------------|


  Gb5         Ab5                Bb5
|---------------|------------------|
|---------------|------------------|
|---------------|------------------|
|-4--4--4-4-4-6-|-(6)-6-6--6-6-6-8-|
|-4--4--4-4-4-6-|-(6)-6-6--6-6-6-8-|
|-4--4--4-4-4-6-|-(6)-6-6--6-6-6-8-|
|
|---------------|------------------|
|---------------|------------------|
|-6--6--6-6-6-8-|-(8)-8-8--8-8-8-6-|
|-x--x--x-x-x-x-|-----x-x--x-x-x-x-|
|-4--4--4-4-4-6-|-(6)-6-6--6-6-6-4-|
|---------------|------------------|


                                            Gb5
|---------------------|-----------------------|
|---------------------|-----------------------|
|---------------------|-----------------------|
|-(8)-8-8-8-8-8--8--8-|-(8)-8--8--8--8--8-8-4-|
|-(8)-8-8-8-8-8--8--8-|-(8)-8--8--8--8--8-8-4-|
|-(8)-8-8-8-8-8--8--8-|-(8)-8--8--8--8--8-8-4-|
|
|---------------------|-----------------------|
|---------------------|-----------------------|
|-(6)-6-6---6-5-(5)-8-|-(8)-6-(6)-5-(5)-6-6-6-|
|-----x-x---x-x-----x-|-----x-----x-----x-x-x-|
|-(4)-4-4---4-3-(3)-6-|-(6)-4-(4)-3-(3)-4-4-4-|
|---------------------|-----------------------|


  Gb5             Ab5                 F5
|-------------------|--------------------|
|-------------------|--------------------|
|-------------------|--------------------|
|-(4)-4-4-4-4-4-4-6-|-(6)-6-6-6-6-6-6--3-|
|-(4)-4-4-4-4-4-4-6-|-(6)-6-6-6-6-6-6--3-|
|-(4)-4-4-4-4-4-4-6-|-(6)-6-6-6-6-6-6--3-|
|
|-------------------|--------------------|
|-------------------|--------------------|
|-(6)-6-6-6-6-6-6-8-|-(8)-8-8-8-8-8-8-10-|
|-----x-x-x-x-x-x-x-|-----x-x-x-x-x-x--x-|
|-(4)-4-4-4-4-4-4-6-|-(6)-6-6-6-6-6-6--8-|
|-------------------|--------------------|


                         Gb5
|--------------------------|-------------------|
|--------------------------|-------------------|
|--------------------------|-------------------|
|--(3)--3--3--3--3--3--3-4-|-(4)-4-4-4-4-4-4-4-|
|--(3)--3--3--3--3--3--3-4-|-(4)-4-4-4-4-4-4-4-|
|--(3)--3--3--3--3--3--3-4-|-(4)-4-4-4-4-4-4-4-|
|
|--------------------------|-------------------|
|--------------------------|-------------------|
|-(10)-10-10-17-17-17-17-6-|-(6)-6-6-6-6-6-6-6-|
|-------x--x--x--x--x--x-x-|-----x-x-x-x-x-x-x-|
|--(8)--8--8-15-15-15-15-4-|-(4)-4-4-4-4-4-4-4-|
|--------------------------|-------------------|


  Gb5             Ab5
|-------------------|-------------------|------------|--------||
|-------------------|-------------------|------------|--------||
|-------------------|-------------------|------------|--------||
|-(4)-4-4-4-4-4-4-6-|-(6)-6-6-6-6-6-6-6-|-(6)--------|-(6)----||
|-(4)-4-4-4-4-4-4-6-|-(6)-6-6-6-6-6-6-6-|-(6)--------|-(6)----||
|-(4)-4-4-4-4-4-4-6-|-(6)-6-6-6-6-6-6-6-|-(6)--------|-(6)----||
|
|-------------------|-------------------|------------|--------||
|-------------------|-------------------|------------|--------||
|-(6)-6-6-6-6-6-6-8-|-(8)-8-8-8-8-8-8-8-|-(8)--------|-(8)----||
|-----x-x-x-x-x-x-x-|-----x-x-x-x-x-x-x-|------------|--------||
|-(4)-4-4-4-4-4-4-6-|-(6)-6-6-6-6-6-6-6-|-(6)--------|-(6)----||
|-------------------|-------------------|------------|--------||


 Out-Chorus
  Gb5           Ab5                 Bb5
|-----------------|-------------------|-------------------|-------------------|
|-----------------|-------------------|-------------------|-------------------|
|-----------------|-------------------|-------------------|-------------------|
|-4-4-4-4-4-4-4-6-|-(6)-6-6-6-6-6-6-8-|-(8)-8-8-8-8-8-8-8-|-(8)-8-8-8-8-8-8-8-|
|-4-4-4-4-4-4-4-6-|-(6)-6-6-6-6-6-6-8-|-(8)-8-8-8-8-8-8-8-|-(8)-8-8-8-8-8-8-8-|
|-4-4-4-4-4-4-4-6-|-(6)-6-6-6-6-6-6-8-|-(8)-8-8-8-8-8-8-8-|-(8)-8-8-8-8-8-8-8-|
|
|-----------------|-------------------|-------------------|-------------------|
|-----------------|-------------------|-------------------|-------------------|
|-6-6-6-6-6-6-6-8-|-(8)-8-8-8-8-8-8-6-|-(6)-6-6-6-6-6-6-6-|-(6)-6-6-5-5-5-5-6-|
|-x-x-x-x-x-x-x-x-|-----x-x-x-x-x-x-x-|-----x-x-x-x-x-x-x-|-----x-x-x-x-x-x-x-|
|-4-4-4-4-4-4-4-6-|-(6)-6-6-6-6-6-6-4-|-(4)-4-4-4-4-4-4-4-|-(4)-4-4-3-3-3-3-4-|
|-----------------|-------------------|-------------------|-------------------|


  Gb5           Ab5                   Bb5
|-----------------|---------------------|
|-----------------|---------------------|
|-----------------|---------------------|
|-4-4-4-4-4-4-4-6-|-(6)-6-6-6-6-6--6--8-|
|-4-4-4-4-4-4-4-6-|-(6)-6-6-6-6-6--6--8-|
|-4-4-4-4-4-4-4-6-|-(6)-6-6-6-6-6--6--8-|
|
|-----------------|---------------------|
|-----------------|---------------------|
|-6-6-6-6-6-6-6-8-|-(8)-8-8-8-8-5-(5)-6-|
|-x-x-x-x-x-x-x-x-|-----x-x-x-x-x-----x-|
|-4-4-4-4-4-4-4-6-|-(6)-6-6-6-6-3-(3)-4-|
|-----------------|---------------------|


                                           Gb5
|--------------------|-----------------------|
|--------------------|-----------------------|
|--------------------|-----------------------|
|-(8)-8-8-8-8-8--8-8-|-(8)-8--8--8--8--8-8-4-|
|-(8)-8-8-8-8-8--8-8-|-(8)-8--8--8--8--8-8-4-|
|-(8)-8-8-8-8-8--8-8-|-(8)-8--8--8--8--8-8-4-|
|
|--------------------|-----------------------|
|--------------------|-----------------------|
|-(6)-6-6---6-8-10-8-|-(8)-6-(6)-5-(5)-6-6-6-|
|-----x-x---x-x--x-x-|-----x-----x-----x-x-x-|
|-(4)-4-4---4-6--8-6-|-(6)-4-(4)-3-(3)-4-4-4-|
|--------------------|-----------------------|


  Gb5             Ab5                 F5
|-------------------|--------------------|
|-------------------|--------------------|
|-------------------|--------------------|
|-(4)-4-4-4-4-4-4-6-|-(6)-6-6-6-6-6-6--3-|
|-(4)-4-4-4-4-4-4-6-|-(6)-6-6-6-6-6-6--3-|
|-(4)-4-4-4-4-4-4-6-|-(6)-6-6-6-6-6-6--3-|
|
|-------------------|--------------------|
|-------------------|--------------------|
|-(6)-6-6-6-6-6-6-8-|-(8)-8-8-8-8-8-8-14-|
|-----x-x-x-x-x-x-x-|-----x-x-x-x-x-x--x-|
|-(4)-4-4-4-4-4-4-6-|-(6)-6-6-6-6-6-6-12-|
|-------------------|--------------------|


                         Gb5
|---------------------------|---------------------------|
|---------------------------|---------------------------|
|---------------------------|---------------------------|
|--(3)--3--3--3--3--3--3--4-|--(4)--4--4--4--4--4--4--4-|
|--(3)--3--3--3--3--3--3--4-|--(4)--4--4--4--4--4--4--4-|
|--(3)--3--3--3--3--3--3--4-|--(4)--4--4--4--4--4--4--4-|
|
|---------------------------|---------------------------|
|---------------------------|---------------------------|
|-(14)-14-14-14-14-14-14-15-|-(15)-15-15-15-15-15-15-15-|
|-------x--x--x--x--x--x--x-|-------x--x--x--x--x--x--x-|
|-(12)-12-12-12-12-12-12-13-|-(13)-13-13-13-13-13-13-13-|
|---------------------------|---------------------------|


  Gb5                   Ab5
|--------------------------|
|--------------------------|
|--------------------------|
|--(4)--4--4-4--4--4--4--6-|
|--(4)--4--4-4--4--4--4--6-|
|--(4)--4--4-4--4--4--4--6-|
|
|--------------------------|
|--------------------------|
|-(15)-15-15---18-18-18-17-|
|-------x--x----x--x--x--x-|
|-(13)-13-13---16-16-16-15-|
|--------------------------|


|---------------------------|-------------|---------*|
|---------------------------|-------------|---------*|
|---------------------------|-------------|---------*|
|--(6)--6--6--6--6--6--6--6-|--(6)--------|--(6)----*|
|--(6)--6--6--6--6--6--6--6-|--(6)--------|--(6)----*|
|--(6)--6--6--6--6--6--6--6-|--(6)--------|--(6)----*|
|
|---------------------------|-------------|---------*|
|---------------------------|-------------|---------*|
|-(17)-17-17-17-17-17-17-17-|-(17)--------|-(17)----*|
|-------x--x--x--x--x--x--x-|-------------|---------*|
|-(15)-15-15-15-15-15-15-15-|-(15)--------|-(15)----*|
|---------------------------|-------------|---------*|
Comments