Atreyu - The Crimson Chords & Tabs

 

The Crimson Chords & Tabs

Atreyu Chords & Tabs

Version: 4 Type: Tab 0 ratings
1 star 2 stars 3 stars 4 stars 5 stars
comments

The Crimson Tab

   
-------------------------------------------------------------------------------
			     THE CRIMSON - ATREYU
-------------------------------------------------------------------------------
Tabbed by: omgitscj (C.J.)
Email: grimik@sbcglobal.net

Tuning: From low to high: CGCFAD

    Ok since no one has the song tabbed correctly I have decided to tab it and time it 
by myself.  This is my first tab and there could be a few errors, so please leave 
if you so desire.  Just no blazing on the song, the band, me or the tab because that's
not right.  Remember its in 1 step down and drop c ( lowest string goes to a c and all
the others down a tone).  Just to note the chorus' and outro are not strummed, they are
ringed out.  Well enough babbling read the tab and rate it as you want, but be honest.

Key

... Palm Mute (dot per note palm muted)
 =  Let Ring
/// Pick Slide
 /  Slide Up
 \  Slide Down
 h  Hammer-On
 p  Pull-Off
 ~  Vibrato
 *  Pinch Harmonic/Artificial Harmonic (squeal noise)
 x  Mute String

Guitar 1 Intro (Clean)  Play 6 times
0:00-0:34
D|-----------------------------------------0----1----3-1h3p1------|
A|--------0h1p0------3---1----0h1------1----1----1-----------1----|
F|-----2----------2---2---2-----------2--2----2---3------------3--|
C|---2---2----------2---2---2-------3-----------------------------|
G|-0--------------------------------------------------------------|
C|----------------------------------------------------------------|

Guitar 2 Intro (Distorted and comes in after Guitar 1 does its intro twice) Play 4 times
0:10-0:34
D|----------------------------|
A|----------------------------|
F|----------------------------|
C|-------7=-----3=-----5=-----|
G|-------7=-----3=-----5------|
C|---///-7=-----3=-----5=-----|

Verse 1 (both guitars, both distorted)
0:35-0:57
D|---------------------------------------------------------------------------------|
A|---------------------------------------------------------------------------------|
F|---------------------------------------------------------------------------------|
C|-999-999--999----101010-101010--101010---555-555--555----777-777-777--0-0-0--5*--|
G|-777-777--777-----7-7-7--7-7-7---7-7-7---333-333--333----555-555-555--0-0-0------|
C|-777-777--777-----7-7-7--7-7-7---7-7-7---333-333--333----555-555-555--0-0-0------|
                                                                        . . .

D|--------------------------------------------------------------------------------------------|
A|--------------------------------------------------------------------------------------------|
F|--------------------------------------------------------------------------------------------|
C|-999----999----999----101010---101010----101010-----555----555----555----777----777----777--|
G|-777----777----777-----7-7-7----7-7-7-----7-7-7-----333----333----333----555----555----555--|
C|-777-00-777-00-777-000-7-7-7-00-7-7-7-000-7-7-7-000-333-00-333-00-333-00-555-00-555-00-555--|
       ..     ..     ...       ..       ...       ...         ..     . .

D|-----------|
A|-----------|
F|-55554444--|
C|-xxxxxxxx--|
G|-33332222--|
C|-----------|

Chorus (Both Guitars Distorted)
0:58-1:20
Part 1:Play twice                Part 2:play once
D|-----------------------|----------------------------------|
A|-----------------------|----------------------------------|
F|-----------------------|----------------------------------|
C|--3=-----5=-----7=-----|--3=-----5=-----2=-----3=-----5=--|
G|--3=-----5=-----7=-----|--3=-----5=-----2=-----3=-----5=--|
C|--3=-----5=-----7=-----|--3=-----5=-----2=-----3=-----5=--|
[ Tab from: http://www.guitartabs.cc/tabs/a/atreyu/the_crimson_tab_ver_4.html ]
Verse 2 (Guitar 1 plays this 6 times, and Guitar 2 does this twice then goes the the 
 Oh and both are distorted and it could be palm muted, not sure about that so experiment to 
which one sounds better to you.)
1:21- 1:56
D|-------------------------------------------------------------------|
A|-------------------------------------------------------------------|
F|-------------------------------------------------------------------|
C|-55555555-5--555-5-5-5---55555555-55-5-5-5---11111111-1--111-1-1-1-|
G|-55555555-5--555-5-5-5---55555555-55-5-5-5---11111111-1--111-1-1-1-|
C|-55555555-5--555-5-5-5---55555555-55-5-5-5---11111111-1--111-1-1-1-|

D|----------------|
A|----------------|
F|----------------|
C|-33333333-33-3--|
G|-33333333-33-3--|
C|-33333333-33-3--|

Solo in Verse 2 (Second Guitar distorted)
1:33-1:56
D|-----------------------------------------------------------------------------------------|
A|-----------------------------------------------------------------------------------------|
F|------------12-------------------------12-----------------------------12-----------------|
C|--10-9h10p9---10-9h10--------10-9h10p9---10-9h10------------10-9h10p9---10-9h10----------|
G|----------------------12-------------------------12*----------------------------12-------|
C|-----------------------------------------------------------------------------------------|

D|--------------------------------------------------------------------------|
A|--------------------------------------------------------------------------|
F|----------9brb*-----------------12------------------------12--------------|
C|-10-9h10p9------------10-9h10p9-----10-9h10-----10-9h10p9----10-9h10------|
G|--------------------------------------------12-----------------------12*--|
C|--------------------------------------------------------------------------|

D|---------------------|
A|---------------------|
F|-----------12b~*-----|
C|-10-9h10p9-----------|
G|---------------------|
C|---------------------|

Chorus 2 (Both guitars and both distorted)
1:56-2:20
Part 1:Play twice                Part 2:play once
D|-----------------------|----------------------------------|
A|-----------------------|----------------------------------|
F|-----------------------|----------------------------------|
C|--3=-----5=-----7=-----|--3=-----5=-----2=-----3=-----5=--|
G|--3=-----5=-----7=-----|--3=-----5=-----2=-----3=-----5=--|
C|--3=-----5=-----7=-----|--3=-----5=-----2=-----3=-----5=--|

Interlude (I think Guitar 2 is doing it, but its clean and you do it eight times)
2:20-2:43
D|------------------------|
A|------------------------|
F|--------12-10-9-9h10p9--|
C|-----10-----------------|
G|---8--------------------|
C|------------------------|

Verse three/Pre-outro (Both guitars and distortion on both of them)  Play once
2:43-3:07
D|-------------------------------------------------------------|
A|-------------------------------------------------------------|
F|---55555555----77777777---99999999----141414---121212----99--|
C|---xxxxxxxx----xxxxxxxx---xxxxxxxx----x-x-x----x-x-x-----xx--|
G|---33333333----55555555---77777777----121212---101010----77--|

D|---------------------------------------------------------------------------|
A|---------------------------------------------------------------------------|
F|--1010101010101010----1212121212121212-----171717171717171717171717171717--|
C|--x-x-x-x-x-x-x-x-----x-x-x-x-x-x-x-x------x-x-x-x-x-x-x-x-x-x-x-x-x-x-x---|
G|--8-8-8-8-8-8-8-8-----1010101010101010-----151515151515151515151515151515--|
C|---------------------------------------------------------------------------|

Outro  (Both guitars and they are both distorted) Play whole thing twice and let last 
ring until end of song
3:07-4:01
Part 1:Play twice                Part 2:play twice
D|-----------------------|----------------------------------|
A|-----------------------|----------------------------------|
F|-----------------------|----------------------------------|
C|--4=-----6=-----8=-----|--4=-----6=-----3=-----4=-----6=--|
G|--4=-----6=-----8=-----|--4=-----6=-----3=-----4=-----6=--|
C|--4=-----6=-----8=-----|--4=-----6=-----3=-----4=-----6=--|

_______________________________________________________________________________
                                END OF TAB
_______________________________________________________________________________
Comments