Atreyu - The Crimson Chords & Tabs

 

The Crimson Chords & Tabs

Atreyu Chords & Tabs

Version: 3 Type: Tab 0 ratings
1 star 2 stars 3 stars 4 stars 5 stars
comments

The Crimson Tab

atreyu
the curse
the crimson

tabbed by new york hardcore J 


*NOTE* .. I saw this tabbed out almost perfect except a couple small things and the
tuning.. I found it almost correct except it was tuned a step up from what ATREYU
actually plays with .. Its dropped C tuning.. Not D.  but .. Hes the perfectly correct
tab :) enjoy and .. Any questions .. Catch me on aim cause email sucks .. N3y1h5c <--aim

Tuning:
          CGCFAD



guitar 1
|------------------------------2--3---5-3h5p3--------|
|------2h3p2---5--3--2h3----3---3--3----------3------|
|---4--------4--4--4-------4-4---4--5----------5-----|
|--4-4--------4--4--4-----5--------------------------|
|-2--------------------------------------------------|
|----------------------------------------------------|


guitar 2 comes in with                          (bridge)
|-s-------------------------------------------|---------|
|--l------------------------------------------|---------|
|---i-----------------------------------------|---------|
|----d----77777777777777773333333355555555(x4)|-5555-55-|
|-----e---77777777777777773333333355555555----|-5555-55-|
|---------77777777777777773333333355555555----|-5555-55-|


|------------------------------------------------------------------------------|
|------------------------------------------------------------------------------|
|------------------------------------------------------------------------------|
|-999-999--999----10-10-10--10-10-10--10-10-10----333-333--333----555-555--555-|
|-777-777--777-----7--7--7---7--7--7---7--7--7----333-333--333----555-555--555-|
|-777-777--777-----7--7--7---7--7--7---7--7--7----333-333--333----555-555--555-|

|-----|			|-------|
|-----|			|-------|
|-----|			|--(5)--|	
|-555-|			|--(5)--|
|-555-|			|--(5)--|
|-555-|			|--(5)--|
     ^---palm muted     	        ^----pitch harmonic
|------------------------------------------------------------------------------|
|------------------------------------------------------------------------------|
|------------------------------------------------------------------------------|
|-999-999--999----10-10-10--10-10-10--10-10-10----333-333--333----555-555--555-|
|-777-777--777-----7--7--7---7--7--7---7--7--7----333-333--333----555-555--555-|
|-777-777--777-----7--7--7---7--7--7---7--7--7----333-333--333----555-555--555-|








will you still hold me when you see what i have done...(chorus)
|------------------------------------|
|------------------------------------|
|------------------------------------|
|-3-3-333--5-5-555--7-7-777--7-7-777-|
|-3-3-333--5-5-555--7-7-777--7-7-777-|
|-3-3-333--5-5-555--7-7-777--7-7-777-|

|------------------------------------|
|------------------------------------|
|------------------------------------|
|-3-3-333--5-5-555--7-7-777--7-7-777-|
|-3-3-333--5-5-555--7-7-777--7-7-777-|
|-3-3-333--5-5-555--7-7-777--7-7-777-|


|-----------------------------------------------------|
|-----------------------------------------------------|
|-----------------------------------------------------|
|-3-3-333--5-5-555--2-2-222--3-3-333--3-3-333--5-5-555|
|-3-3-333--5-5-555--2-2-222--3-3-333--3-3-333--5-5-555|
|-3-3-333--5-5-555--2-2-222--3-3-333--3-3-333--5-5-555|

guitar 1
|-------------------------------------------------------------------|
|-------------------------------------------------------------------|
|-------------------------------------------------------------------|
|-77777777-7-7777-7-7-7---77777777-77-7-7-7---33333333-3--333-3-3-3-|
|-77777777-7-7777-7-7-7---77777777-77-7-7-7---33333333-3--333-3-3-3-| 
|-77777777-7-7777-7-7-7---77777777-77-7-7-7---33333333-3--333-3-3-3-|
[ Tab from: http://www.guitartabs.cc/tabs/a/atreyu/the_crimson_tab_ver_3.html ]
|---------------|(x3)
|---------------|
|---------------|
|-55555555-55-5-|
|-55555555-55-5-|
|-55555555-55-5-|

guitar 2 comes in with
|----------------------------------------------------------------------------|
|------------17------------------------17---------------------17-------------|
|--17-161716----17-161716----17-161716----17-161714-17-161716----17-17161714-|
|-------------------------19-------------------------------------------------|
|----------------------------------------------------------------------------|
|----------------------------------------------------------------------------|

|-----------------|(x2)
|-----------17b18-|
|-17-161716-------|
|-----------------|
|-----------------|
|-----------------|










will you still hold we when you see what i have done...
|------------------------------------|
|------------------------------------|
|------------------------------------|
|-3-3-333--5-5-555--7-7-777--7-7-777-|
|-3-3-333--5-5-555--7-7-777--7-7-777-|
|-3-3-333--5-5-555--7-7-777--7-7-777-|


|------------------------------------|
|------------------------------------|
|------------------------------------|
|-3-3-333--5-5-555--7-7-777--7-7-777-|
|-3-3-333--5-5-555--7-7-777--7-7-777-|
|-3-3-333--5-5-555--7-7-777--7-7-777-|


|------------------------------------------------------|
|------------------------------------------------------|
|------------------------------------------------------|
|-3-3-333--5-5-555--2-2-222--3-3-333--3-3-333--5-5--555|
|-3-3-333--5-5-555--2-2-222--3-3-333--3-3-333--5-5--555|
|-3-3-333--5-5-555--2-2-222--3-3-333--3-3-333--5-5--555|




and all i have is hope and all i need is time...
|-------------------------------|
|-------------------------------|
|------12-----10-----9----9h10--|
|---10-------10----10---10------|
|-8---8---8-----8---------------|
|-------------------------------|

will you still hold me when you see what i have done...
|-----------------------------------------|
|-----------------------------------------|
|-----------------------------------------|
|-4-4--444---6-6--666---8-8--888-8-8--888-|
|-4-4--444---6-6--666---8-8--888-8-8--888-|
|-4-4--444---6-6--666---8-8--888-8-8--888-|

|-----------------------------------------|
|-----------------------------------------|
|-----------------------------------------|
|-4-4--444---6-6--666---8-8--888-8-8--888-|
|-4-4--444---6-6--666---8-8--888-8-8--888-|
|-4-4--444---6-6--666---8-8--888-8-8--888-|

|------------------------------------------------------------|
|------------------------------------------------------------|
|------------------------------------------------------------|
|-4-4--444---6-6--666---3-3--333-4-4--444--4-4--444--6-6-6666|
|-4-4--444---6-6--666---3-3--333-4-4--444--4-4--444--6-6-6666|
|-4-4--444---6-6--666---3-3--333-4-4--444--4-4--444--6-6-6666|







|-----------------------------------------|
|-----------------------------------------|
|-----------------------------------------|
|-4-4--444---6-6--666---8-8--888-8-8--888-|
|-4-4--444---6-6--666---8-8--888-8-8--888-|
|-4-4--444---6-6--666---8-8--888-8-8--888-|

|-----------------------------------------|
|-----------------------------------------|
|-----------------------------------------|
|-4-4--444---6-6--666---8-8--888-8-8--888-|
|-4-4--444---6-6--666---8-8--888-8-8--888-|
|-4-4--444---6-6--666---8-8--888-8-8--888-|


|------------------------------------------------------------|
|------------------------------------------------------------|
|------------------------------------------------------------|
|-4-4--444---6-6--666---3-3--333-4-4--444--4-4--444--6-6-6666|
|-4-4--444---6-6--666---3-3--333-4-4--444--4-4--444--6-6-6666|
|-4-4--444---6-6--666---3-3--333-4-4--444--4-4--444--6-6-6666|
Comments