Atreyu - The Crimson Chords & Tabs

 

The Crimson Chords & Tabs

Atreyu Chords & Tabs

Version: 2 Type: Tab 0 ratings
1 star 2 stars 3 stars 4 stars 5 stars
comments

The Crimson Tab

atreyu
the curse
the crimson
tabed by mattias

guitar 1
|------------------------------0--1---3-1h3p1--------|
|------0h1p0---3--1--0h1----1---1--1----------1------|
|---2--------2--2--2-------2-2---2--3----------3-----|
|--2-2--------2--2--2-----3--------------------------|
|-0--------------------------------------------------|
|----------------------------------------------------|


guitar 2 comes in with                          (bridge)
|-s-------------------------------------------|---------|
|--l------------------------------------------|---------|
|---i-----------------------------------------|---------|
|----d----55555555555555551111111133333333(x4)|-3333-33-|
|-----e---55555555555555551111111133333333----|-3333-33-|
|---------55555555555555551111111133333333----|-3333-33-|


|--------------------------------------------------------------|
|--------------------------------------------------------------|
|--------------------------------------------------------------|
|-777-777--777----888-888--888----111-111--111----333-333--333-|
|-555-555--555----555-555--555----111-111--111----333-333--333-|
|-555-555--555----555-555--555----111-111--111----333-333--333-|

will you still hold me when you see what i have done...(chorus)
|------------------------------------|
|------------------------------------|
|------------------------------------|
|-1-1-111--3-3-333--5-5-555--5-5-555-|
|-1-1-111--3-3-333--5-5-555--5-5-555-|
|-1-1-111--3-3-333--5-5-555--5-5-555-|
[ Tab from: http://www.guitartabs.cc/tabs/a/atreyu/the_crimson_tab_ver_2.html ]
guitar 1
|-------------------------------------------------------------------|
|-------------------------------------------------------------------|
|-------------------------------------------------------------------|
|-55555555-5--555-5-5-5---55555555-55-5-5-5---11111111-1--111-1-1-1-|
|-55555555-5--555-5-5-5---55555555-55-5-5-5---11111111-1--111-1-1-1-|
|-55555555-5--555-5-5-5---55555555-55-5-5-5---11111111-1--111-1-1-1-|

|---------------|(x3)
|---------------|
|---------------|
|-33333333-33-3-|
|-33333333-33-3-|
|-33333333-33-3-|
guitar 2 comes in with
|----------------------------------------------------------------------------|
|------------15------------------------15---------------------15-------------|
|--15-141514----15-141514----15-141514----15-141512-15-141514----15-15141512-|
|-------------------------17-------------------------------------------------|
|----------------------------------------------------------------------------|
|----------------------------------------------------------------------------|

|-----------------|(x2)
|-----------15b16-|
|-15-141514-------|
|-----------------|
|-----------------|
|-----------------|

will you still hold we when you see what i have done...(chorus)
|------------------------|
|------------------------|
|------------------------|
|1-1-111-3-3-333-5-5-555-|
|1-1-111-3-3-333-5-5-555-|
|1-1-111-3-3-333-5-5-555-|

(really emo part) and all i have is hope and all i need is time...
|--------------------------|
|--------------------------|
|------10-----8----7--7h8--|
|---8-------8----8---8-----|
|-6---6---6-----6----------|
|--------------------------|

will you still hold me when you see what i have done...
|-----------------------------------------|
|-----------------------------------------|
|-----------------------------------------|
|-3-3--333---5-5--555---7-7--777-7-7--777-|
|-3-3--333---5-5--555---7-7--777-7-7--777-|
|-3-3--333---5-5--555---7-7--777-7-7--777-|
Comments