Atreyu - Shameful Chords & Tabs

 

Shameful Chords & Tabs

Atreyu Chords & Tabs

Version: 2 Type: Bass Tab

Shameful Bass Tab

   
----------------------------------------------------------------------------
			     Shameful - Atreyu
----------------------------------------------------------------------------

Tabbed By : Up_in_flames with input from ben_trivium
e-mail: sk8in_maniac@hotmail.com


Tuning: CGCF


Intro     0:06

F|-----------------------------------|
C|-----------------------------------|
G|-----------------------------------|
C|---0~~~-------888888 555555-55-----|

Verse pt. 1   0:12
                                                   x 2
F|------------------------------------------------------|
C|------------------------------------------------------|
G|-----555---555-5--555---555----5----------------------|
C|--000---000---0-00----000---000--888888888-55555555---|
                   .

Verse pt. 2   0:36
                                           x 2
F|---------------------------------------------|
C|------------------------------------(0)------|
G|-------------------------(50)------(0)-------|
C|-00000000-00000000-333333---5-555555---------|
(notes in brackets arent very noticeable so you could just not play them but they are there)

Chorus      0:59

F|----------------------------------------------------------|
C|----------------------------------------------------------|
G|----------------------------------------------------------|
C|--00000000-88888888-1010101010101010-55555555-------------|

F|----------------------------------------------------------|
C|----------------------------------------------------------|
G|----------------------------------------------------------|
C|--00000000-88888888-1010101010101010-8888-5555------------|

Verse 2
                                           x 2
F|---------------------------------------------|
C|---------------------------------------------|
G|---------------------------------------------|
C|--000-000-00-0-00-000-0-88888888-55555555----|


Chorus      1:50
[ Tab from: http://www.guitartabs.cc/tabs/a/atreyu/shameful_btab_ver_2.html ]
F|----------------------------------------------------------|
C|----------------------------------------------------------|
G|----------------------------------------------------------|
C|--00000000-88888888-1010101010101010-55555555-------------|

F|----------------------------------------------------------|
C|----------------------------------------------------------|
G|----------------------------------------------------------|
C|--00000000-88888888-1010101010101010-55555555-------------|


bridge        2:14

F|--------------------------------------------------------------------------|
C|--------------------------------------------------------------------------|
G|--88888888-1010101010101010-55555555-44444444-----------------------------|
C|----------------------------------------------88888888-1010101010101010---|

F|--------------------------------------------------------------------------|
C|--------------------------------------------------------------------------|
G|--55555555----------------------------88888888-44444444-------------------|
C|------------88888888-1010101010101010-------------------88888888-55555555-|

F|--------------------------------------------------------|
C|--------------------------------------------------------|
G|--------------------------------------------------------|
C|-0~~~~~------------------0~~---8~~---10~~--8888-5555----|

Chorus       3:02

F|----------------------------------------------------------|
C|----------------------------------------------------------|
G|----------------------------------------------------------|
C|--00000000-88888888-1010101010101010-55555555-------------|

F|----------------------------------------------------------|
C|----------------------------------------------------------|
G|----------------------------------------------------------|
C|--00000000-88888888-1010101010101010-8888-5555~/0---------|

| .  palm mute
| /  slide up
| \  slide down
| h  hammer-on
| p  pull-off
| ~  let ring
| +  harmonic
| x  Mute note
============================================================================