Atreyu - Right Side Of The Bed Chords & Tabs

 

Right Side Of The Bed Chords & Tabs

Atreyu Chords & Tabs

Version: 7 Type: Tab 0 ratings
1 star 2 stars 3 stars 4 stars 5 stars
comments

Right Side Of The Bed Tab

   
alot of people tried this solo and, surprisingly messed it up... its quite simple and slow here it is
DADGBe

(this part is very slow)
e--------------------------------------------------------------------|
b10------13p10--11p10--13p10--11p10--11p10---------------------------|
g12b14--------10-----10-----10------------12p10----------------------|
d--------------------------------------------------------------------|
a--------------------------------------------------------------------|
d--------------------------------------------------------------------|

e--------------------------------------------------------------------|
b10------13p10--11p10--13p10--11p10--10h11p10------------------------|
g12b14--------10-----10-----10---------------12p10-------------------|
d--------------------------------------------------------------------|
a--------------------------------------------------------------------|
d--------------------------------------------------------------------|
[ Tab from: http://www.guitartabs.cc/tabs/a/atreyu/right_side_of_the_bed_tab_ver_7.html ]
e----------------------------------------------------13--------------|
b10------13p10--11p10--13p10--11p10--11p10------13b15---13-11-13-----|
g12b14--------10-----10-----10------------12p10----------------------|
d--------------------------------------------------------------------|
a--------------------------------------------------------------------|
d--------------------------------------------------------------------|

(k, now is the fast, fun stuff)
e13-12-10--------------------------------10-----10--12--10------------|
b---------13-12-10---------------------------13-----------13----------|
g------------------12b14-10-12-12---12b14--12--12--12--12-------------|
d--------------------------------13*----------------------------------|
a---------------------------------------------------------------------|
d---------------------------------------------------------------------|

tapping!!!
e-----------------------------------------------------------------------|
b-t17p10h13-t17p10h13-t17p10h13-t17p10h13-t18p10h13-t18p10h13-t18p10h13-|
g-----------------------------------------------------------------------|
d-----------------------------------------------------------------------|
a-----------------------------------------------------------------------|
d-----------------------------------------------------------------------|

e------------------------------------------------------------------------|
b-t18p10h13--11-10-------------------------------------------------------|
g-----------------12-10-12b14-12~----------------------------------------|
d------------------------------------------------------------------------|
a------------------------------------------------------------------------|
d------------------------------------------------------------------------|
Comments