Atreyu - Right Side Of The Bed Chords & Tabs

 

Right Side Of The Bed Chords & Tabs

Atreyu Chords & Tabs

Version: 5 Type: Tab 0 ratings
1 star 2 stars 3 stars 4 stars 5 stars
comments

Right Side Of The Bed Tab

   
-----------------------------------------------------------------------------                    
Atreyu - right side of the bed
-----------------------------------------------------------------------------

Tabbed by: Noah S.
Email:

Tuning: Drop D tuning down 1 step (C-G-C-F-A-D)

Tempo: 169.5 
                                                                    
D|--------------------------------------------------------------------------|
A|---------6-----5------------------------------------6---5-----------------|
F|---------7-----5------------------------------------7---5-----------------|
C|---------7-----5-------8----8---10---10-10----------7---5------cont.------|
G|---------5--5--5--5-5--8----8---10---10-10----------5-5-5-5-5-------------|
C|-0-0-0-0---------------8----8---10---10-10-0-0-0-0------------------------|
[ Tab from: http://www.guitartabs.cc/tabs/a/atreyu/right_side_of_the_bed_tab_ver_5.html ]
D|------------------------------|-------------------------------------------|
A|------------------------------|--------6----5-----------------------------|
F|-10--10-----------------------|--------7----5-----------------------------|
C|-10--10----8------8-----------|--------7----5-------8--8--10--10-----7----|
G|--8---8----8------8-----------|--------5--5-5--5-5--8--8--10--10-----7----|
C|-----------8------8----0---0--|--0--0---------------8--8--10--10--0--7----|

D|--------------------------------------------------------------------------|
A|--------------------------------------------------------------------------|
F|--------------------------------------------------------------------------|
C|--------------------------------------------------------------------------|
G|-----------8--7--------------8---7---10--8--7-----------------------------|
C|--7--10--7--------10---8-----------8-----------10-------------------------|

this is just the the intro, but it's a tough song to learn by ear. 
It's not that hard to play, just give it time and trust that my tab is right.

-Thanks
Comments