Atreyu - Right Side Of The Bed Chords & Tabs

 

Right Side Of The Bed Chords & Tabs

Atreyu Chords & Tabs

Version: 3 Type: Tab 0 ratings
1 star 2 stars 3 stars 4 stars 5 stars
comments

Right Side Of The Bed Tab

Atreyu RocKs!!
intro

D----------------------------------------------------------------------------|
A----------------------------------------------------------------------------|
F-------------7----5-----3---3---3---3-----5----5----------------------------|
C---0---0-----7----5-----3---3---3---3-----5----5----------------------------|
G---0---0-----5----3-----1---1---1---1-----3----3----------------------------|
C---0---0--------------------------------------------------------------------|


-----------------------------------------------------------------------------|
-----------------------------------------------------------------------------|
---------------7----5-------10----10---10----10-----3---3--------------------|
---0---0-------7----5-------10----10---10----10-----3---3--------------------|
---0---0-------5----3-------8-----8-----8-----8-----1---1--------------------|
---0---0---------------------------------------------------------------------|
[ Tab from: http://www.guitartabs.cc/tabs/a/atreyu/right_side_of_the_bed_tab_ver_3.html ]
D----------------------------------------------------------------------------|
A----------------------------------------------------------------------------|
F-------------7----5-----3---3---3---3-----5----5----------------------------|
C---0---0-----7----5-----3---3---3---3-----5----5----------------------------|
G---0---0-----5----3-----1---1---1---1-----3----3----------------------------|
C---0---0--------------------------------------------------------------------|


----------------------------------------------------------------------------|
----------------------------------------------------------------------------|
----------------------------------------------------------------------------|
---0---------2---3----2----0-----5-----3-----2----3---2----0----------------|
---0-----0------------------------------------------------------------------|
---0------------------------------------------------------------------------|


 This is the intro of the song it sounds good to me, I'm working on the whole 
is my first tab)
Grtz  Jelle
jelle313@hotmail.com
Comments