Atreyu - Right Side Of The Bed Chords & Tabs

 

Right Side Of The Bed Chords & Tabs

Atreyu Chords & Tabs

Version: 2 Type: Bass Tab 0 ratings
1 star 2 stars 3 stars 4 stars 5 stars
comments

Right Side Of The Bed Bass Tab

Tabbed by - D-miester.
Atreyu - Right Side of the Bed
CGCF Tuning

This is the way I play it....loads of people seem to miss what is played during the 
and the guitar solo
when tabbing this song.


INTRO (2x)

F|--------------------------------------------|
C|--------------------------------------------|
G|--------------------------------------------|
C|---77777777--88888888-----------------------|

F|----------------------------------------------------------------------|
C|----------------------------------------------------------------------|
G|-----------------------------------------------------8-8-8------------|
C|--0-0-0-0--12--10--8-8-8--10-10-10--0-0-0-0--12--10----------8-8-8----|

F|----------------------------------------------------------------------|
C|----------------------------------------------------------------------|
G|----------------------------------------------------------------------|
C|--0-0-0-0--12--10--8-8-8--10-10-10---77777777--88888888---------------|

VERSE
F|------------------------------------------------------------|
C|------------------------------------------------------------|
G|------------------------------------------------------------|
C|--0-0--0h3-0-0--0-0-8--0-0-3--0-0--0-0-0-0-0--0-0-8--0-0-3--|

F|---------------------------------------------------|
C|---------------------------------------------------|(2x)
G|---------------------------------------------------|
C|--0-0--00-0----0-0-8----0-0-3--0-------------------|

Chorus
F|-------------------------------------------------------------|
C|-------------------------------------------------------------|(4x)
G|-------------------8-8-8-8-8---------------------------------|
C|--12-12-12-12-12--------------8-8-8-8-8--10-10-10-10-10------|

F|-----------|
C|-----------|
G|-----------|
C|--0~-------|

VERSE
F|------------------------------------------------------------|
C|------------------------------------------------------------|
G|------------------------------------------------------------|
C|--0-0--0h3-0-0--0-0-8--0-0-3--0-0--0-0-0-0-0--0-0-8--0-0-3--|

F|------------------------------------------------------------|
C|------------------------------------------------------------|(2x)
G|------------------------------------------------------------|
C|--0-0--0h3-0-0--0-0-8--0-0-3--0-0--0-0-0-0-0--0-0-8--0-0-3--|

[ Tab from: http://www.guitartabs.cc/tabs/a/atreyu/right_side_of_the_bed_btab_ver_2.html ]
Chorus
F|-------------------------------------------------------------|
C|-------------------------------------------------------------|(4x)
G|-------------------8-8-8-8-8---------------------------------|
C|--12-12-12-12-12--------------8-8-8-8-8--10-10-10-10-10------|

F|----------|
C|----------|
G|----------|
C|-7~-------|

Bridge
F|--------------------------------------------------------------------------|
C|--------------------------------------------------------------------------|
G|--7~--8--8--8--8--8--8--8--8/10/7-7-7-7-7-7-7-7---8--8--8--8--8--8--8--8--|
C|--------------------------------------------------------------------------|

F|------------------------------------------------------------------------------------|
C|------------------------------------------------------------------------------------|
G|--7-7-7-7-7-7--5-5-5-5-5-5---8--8--8--8--8--8--8--8--12/13/10-10-10-10-10-10-10-10--|
C|------------------------------------------------------------------------------------|

Breakdown
F|-------------|
C|-------------|
G|-------------|
C|--12-12-12---|

F|-------------|
C|-------------|
G|-------------|
C|--12-12-12---|

F|----------------------------|
C|----------------------------|
G|----------------------------|
C|--7777777--88888888---------|

F|-------------------------------------------------------------------------|
C|-------------------------------------------------------------------------|
G|-------------------------------------------------------------------------|
C|--12-12-12--10--8-8-8-8--10-10-10-10--12-12-12--10--15-15-15-15--8-8-8-8-|

F|-----------|
C|-----------|
G|--7~---8~--|
C|-----------|


Guitar Solo
F|---------------------------------------------------------------|
C|---------------------------------------------------------------|
G|---------------------------------------------------------------|
C|--12-12-12-12-12-12-12-12-12-12-12-12--8-8-8-8-8-8-8-8-8-8-8-8-|   (4x)

After Solo...

F|------------|
C|------------|
G|------------|
C|--12~-0-----|


Chorus
F|-------------------------------------------------------------|
C|-------------------------------------------------------------|(4x)
G|-------------------8-8-8-8-8---------------------------------|
C|--12-12-12-12-12--------------8-8-8-8-8--10-10-10-10-10------|

F|------------------------------------------|
C|------------------------------------------|
G|------------------------------------------|
C|--7-7-7-7-7-7-7-7--8-8-8-8-8-8-8-8--0-0---|

Any questions etc - voicesinrevery@hotmail.co.uk
Comments