Atreyu - Right Side Of The Bed Chords & Tabs

 

Right Side Of The Bed Chords & Tabs

Atreyu Chords & Tabs

Version: 1 Type: Bass Tab 0 ratings
1 star 2 stars 3 stars 4 stars 5 stars
comments

Right Side Of The Bed Bass Tab

   
Atreyu-right side of the bed
Album-the curse
Tuning-CGCF

Intro(2x)
F|---------------------------------------------------------------------|
C|---------------------------------------------------------------------|
G|---------------------------------------------------------------------|
C|--0-0-0-0--12--10--8-8-8--10-10-10--0-0-0-0--12--10--15-15-15--8-8-8-|

F|--------------------------------------|
C|--------------------------------------|
G|--------------------------------------|
C|--0-0-0-0--12--10--8-8-8--10-10-10--0-|

Verse(2x)
F|----------------------------------------------------------|
C|----------------------------------------------------------|
G|----------------------------------------------------------|
C|-0-0--0h3-0-0--0-0-8--0-0-3--0-0--0-0-0-0-0--0-0-8--0-0-3-|

F|------------------------------------|
C|------------------------------------|
G|------------------------------------|
C|-0-0--------0-0--------0-0----------|
[ Tab from: http://www.guitartabs.cc/tabs/a/atreyu/right_side_of_the_bed_btab.html ]
Chorus(4x)
F|-----------------------------------------------------------|
C|-----------------------------------------------------------|
G|-----------------------------------------------------------|
C|-12-12-12-12-12--15-15-15-15-15--8-8-8-8-8--10-10-10-10-10-|

F|----|
C|----|
G|----|
C|-0~-|

Verse(2x)
Chorus(4x)

Bridge
F|-----------------------------------------------------------------------|
C|-----------------------------------------------------------------------|
G|-7~--8--8--8--8--8--8--8--8/10/7-7-7-7-7-7-7-7--8--8--8--8--8--8--8--8-|
C|-----------------------------------------------------------------------|

Breakdown
F|-----------|
C|-----------|
G|-----------|
C|-12-12-12/-|

F|-----------|
C|-----------|
G|-12-12-12/-|
C|-----------|

F|-------|
C|-------|
G|-7~-8~-|
C|-------|

Tabbed by Jordan
A_Tragedy_Called_Life@Hotmail.com
               OR 
A_Tragedy_Called_Life@Stewiesminions.com
Questions or comments ~ E-mail me

(NOTE)-~-ATREYU RULES
Comments