Atreyu - Of Gods And Monsters Chords & Tabs

 

Of Gods And Monsters Chords & Tabs

Atreyu Chords & Tabs

Version: 1 Type: Tab 0 ratings
1 star 2 stars 3 stars 4 stars 5 stars
comments

Of Gods And Monsters Tab

   
----------------------------------------------------------------------------
			     Of Gods and Monsters - Atreyu
----------------------------------------------------------------------------
Tabbed by:riffraff
Email:chris__biggar@hotmail.com

Tuning:Drop D
                            -Intro-
     Both Guitars
e|-------------------------------------------------------------------------|
B|-------------------------------------------------------------------------|
G|-------------------------------------------------------------------------|
D|-------------------------------------------------------------------------|
A|-----4----5----10----9-----7-----5---------------------------------------|
E|--0----0----0-----0-----0-----0------------------------------------------|

                            -Verse 1-

Both Guitars x4

e|-------------------------------------------------------------------------|
B|-------------------------------------------------------------------------|
G|-------------------------------------------------------------------------|
D|-------------------------------------------------------------------------|
A|-----444-----555-----101010-999-797--------------------------------------|
E|-000-----000-----000-----------------------------------------------------|


Guitar one and two play this x4:

  Guitar One
e|------------------------------------------------------------------------|
B|------------------------------------------------------------------------|
G|------------------------------------------------------------------------|
D|------------------------------------------------------------------------|
A|-------444-----555-----101010-999-797-----------------------------------|
E|--000------000-----000--------------------------------------------------|

  GuitarTwo
e|-------------------------------------------------------------------------|
B|-------------------------------------------------------------------------|
G|-------------------------------------------------------------------------|
D|--0-0-0-0-0-0-0-0-0-0-0-0-0-0-0-0-0-0------------------------------------|
A|--0-0-0-0-0-0-0-0-0-0-0-0-0-0-0-0-0-0------------------------------------|
E|--0-0-0-0-0-0-0-0-0-0-0-0-0-0-0-0-0-0------------------------------------|

                            -Interlude-

          Guitar 1
e|----------------------------------------------------------x4------------|
B|------------------------------------------------------------------------|
G|------------------------------------------------------------------------|
D|------------------------------------------------------------------------|
A|---4--5--7--8--10--8--7--5----------------------------------------------|
E|-0--0--0--0--0---0--0--0------------------------------------------------|


      Guitar 2
e|-------------------------------------------------------------------------|
B|-------------------------------------------------------------------------|
G|-------------------------------------------------------------------------|
D|--0----------------------------------------------------------------------|
A|--0-this is palm muted at spots while guitar one plays that same lick----|
E|--0----------------------------------------------------------------------|


Verse 2 is both guitars playing that riff from the interlude x4

                                -Chorus-
[ Tab from: http://www.guitartabs.cc/tabs/a/atreyu/of_gods_and_monsters_tab.html ]
e|---------------------------x2-|----------------------------x4------------|
B|------------------------------|------------------------------------------|
G|------------------------------|------------------------------------------|
D|------------------------------|------------------------------------------|
A|-----4-----7-----8-----10-----|-----4-----7-----8-----10-----------------|
E|-000---000---000---000--------|-000---000---000---000--------------------|
  ...   ...   ...   ...          ...   ...   ...   ...
e|------------------------------|------------------------------------------|
B|------------------------------|------------------------------------------|
G|------------------------------|------------------------------------------|
D|------------------------------|-000---000---000---000--------------------|
A|-----4-----7------8----10-----|-000---000---000---000--------------------|
E|-000---000---000---000--------|-000---000---000---000--------------------|
   ...   ...   ...   ...          ...   ...   ...   ...

                       -Post Chorus-

     Both Guitars
e|---------------------------------------------------------------------------|
B|--------------------x4-----------------------------------------------------|
G|---------------------------------------------------------------------------|
D|-00-30-00-30---------------------------------------------------------------|
A|-00-30-00-30-4/10----------------------------------------------------------|
E|-00-30-00-30---------------------------------------------------------------|
   .. .. .. ..
                            -Verse 3-

Both Guitars x5
                                         fifth time do this
e|------------------------------------|------------------------------------|
B|------------------------------------|------------------------------------|
G|------------------------------------|------------------------------------|
D|------------------------------------|------------------------------------|
A|-----444-----555-----101010-999-797-|-----444-----555-----101010-999-7---|
E|-000-----000-----000----------------|-000-----000-----000----------------|


Guitar one and two play this x4:

  Guitar One
e|------------------------------------------------------------------------|
B|------------------------------------------------------------------------|
G|------------------------------------------------------------------------|
D|------------------------------------------------------------------------|
A|-------444-----555-----101010-999-797-----------------------------------|
E|--000------000-----000--------------------------------------------------|
                                                                               Guitar Two
e|-------------------------------------------------------------------------|
B|-------------------------------------------------------------------------|
G|-------------------------------------------------------------------------|
D|--0-0-0-0-0-0-0-0-0-0-0-0-0-0-0-0-0-0------------------------------------|
A|--0-0-0-0-0-0-0-0-0-0-0-0-0-0-0-0-0-0------------------------------------|
E|--0-0-0-0-0-0-0-0-0-0-0-0-0-0-0-0-0-0------------------------------------|

                        -Outro-
     Both Guitars
e|-----------------------------------------------------x4------------------|
B|-------------------------------------------------------------------------|
G|-------------------------------------------------------------------------|
D|-------------------------------------------------------------------------|
A|--------444-------555-------101010-999-797-------------------------------|
E|-0-0000----0-0000----0-0000----------------------------------------------|
     ....      ....      ....


    Guitar One
e|------------------------------------------------------------------------|
B|----------------------------------------------------------------x4------|
G|------------------------------------------------------------------------|
D|------------------------------------------------------------------------|
A|---4--5--7--8--10--8--7--5----------------------------------------------|
E|-0--0--0--0--0---0--0--0------------------------------------------------|
                                                                          |
     Guitar Two
e|-------------------------------------------------------------------------|
B|-------------------------------------------------------------------------|
G|-------------------------------------------------------------------------|
D|--0----------------------------------------------------------------------|
A|--0-this is palm muted at spots while guitar one plays that same lick----|
E|--0----------------------------------------------------------------------|


| .  palm-mute
| /  slide up
| \  slide down
| h  hammer-on
| p  pull-off
| ~  vibrato
| +  harmonic
| x  Mute note
============================================================================
Comments