Atreyu - My Sanity On The Funeral Pyre Chords & Tabs

 

My Sanity On The Funeral Pyre Chords & Tabs

Atreyu Chords & Tabs

Version: 1 Type: Tab 1 rating
1 star 2 stars 3 stars 4 stars 5 stars
comments

My Sanity On The Funeral Pyre Tab

   
Played in dropped C-CGCFAD
/-Slide
`-Pick Scrape
~-Let Ring
x-Open Palm Mute
h-Hammer On
p-Pull Off
()-background


  intro-(guitar 1)-------other guitar has a bunch of feedback and noise.
D :------------------------------------------------------
A :------------------------------------------------------
F :------------------------------------------------------
c :8//0-0-1--0-0-3--0-0-0-0-1-0-1-3------------------------        4x
G :8//0-0-1--0-0-3--0-0-0-0-1-0-1-3------------------------
C :8//0-0-1--0-0-3--0-0-0-0-1-0-1-3------------------------

  (guitar 2)-after guitar 1 plays intro 2x
D :------------------------------------------------------
A :------------------------------------------------------
F :------------------------------------------------------
c :``````````````````````````----------------------------
G :------------------------------------------------------
C :------------------------------------------------------

  verse- after the build up intro-both guitars
D :------------------------------------------------------
A :------------------------------------------------------
F :------------------------------------------------------
c :0-0-1--0-0-3--0-xxx-1-0-1-3---------------------------        8x
G :0-0-1--0-0-3--0-xxx-1-0-1-3---------------------------
C :0-0-1--0-0-3--0-xxx-1-0-1-3---------------------------

  into verse 2
D :------------------------------------------------------
A :------------------------------------------------------
F :------------7^~---------------------------------------
c :0~----------------------------------------------------
G :0~----------5^~---------------------------------------
C :0~----------------------------------------------------

  verse 2-(guitar 1)-And evrything I touch is breaking........
D :------------------------------------------------------
A :---------------3-3h4p3--(3h4p3)-----------------------
F :------------------------------------------------------
c :x-x-xxx-----------------------------------------------
G :x-x-xxx--------------------------------5-5h6p5--------
C :x-x-xxx-----------------------------------------------

  verse 2-(guitar 2)                                           4x
D :------------------------------------------------------
A :---------------7-7h8p7--------------------------------
F :------------------------------------------------------
c :x-x-xxx-------------------x-x-xxx---------------------
G :x-x-xxx-------------------x-x-xxx------5-5h6p5--------
C :x-x-xxx-------------------x-x-xxx---------------------

 chorus intro-both guitars- On my way to making amends...... 
D :------------------------------------------------------
A :------------------------------------------------------
F :-------------------------------9-9--10-10-------------
c :5--5--5-1-xxx-xxx-xxx-5--5--5-------------------------
G :5--5--5-1-xxx-xxx-xxx-5--5--5--6-6--8--8--------------
C :5--5--5-1-xxx-xxx-xxx-5--5--5-------------------------

                               ......to be what I became........
D :-----------------------------------------------------------------------------
A :-----------------------------------------------------------------------------
F :-------------------------------10-10-10-10-10-10-10-10-5--5--5--5--5--5--5--5
c :5--5--5-1-xxx-xxx-xxx-5--5--5------------------------------------------------
G :5--5--5-1-xxx-xxx-xxx-5--5--5--8--8--8--8--8--8--8--8--3--3--3--3--3--3--3--3
C :5--5--5-1-xxx-xxx-xxx-5--5--5------------------------------------------------

  chorus-(guitar 1)....Sometimes it feels like .......
D :---------------------------------------------------------------
A :---------------------------------------------------------------
F :---------------------------------------------------------------
c :5-5-5-5-5-5-5-5-8-8-8-8-8-8-8-8-1-1-1-1-1-1-1-1-3-3-3-3-3-3-3-3
G :5-5-5-5-5-5-5-5-8-8-8-8-8-8-8-8-1-1-1-1-1-1-1-1-3-3-3-3-3-3-3-3
c :5-5-5-5-5-5-5-5-8-8-8-8-8-8-8-8-1-1-1-1-1-1-1-1-3-3-3-3-3-3-3-3
[ Tab from: http://www.guitartabs.cc/tabs/a/atreyu/my_sanity_on_the_funeral_pyre_tab.html ]
  (guitar 2)                                                             2x
D :------------------------------------------------------
A :------------------------------------------------------
F :12/15/12-7-7-7-7--5--10-7-7-7-7-5-5-5-5-5--10-7-------
c :------------------------------------------------------
G :10/13/10-5-5-5-5--3--8--5-5-5-5-3-3-3-3-3--8--5-------
C :------------------------------------------------------

verse-4x
verse2-4x
chorus intro
chorus-2x

  For the first time I'm losing control................(guitar 1)
D :------------------------------------------------------------------------------------
A :------------------------------------------------------------------------------------
F :------------------------------------------------------------------------------------
c :1-1-1-1-1-1-----1-1-1-1-1-1-1-1-1-1-1-----1-1-1-1-1-5-5-5-5-5-----5-5-5-5-5-5-5-5-5-5-5----5-5-8/-        2x
G :1-1-1-1-1-1-----1-1-1-1-1-1-1-1-1-1-1-----1-1-1-1-1-5-5-5-5-5-----5-5-5-5-5-5-5-5-5-5-5----5-5-8/-
C :1-1-1-1-1-1-----1-1-1-1-1-1-1-1-1-1-1-----1-1-1-1-1-5-5-5-5-5-----5-5-5-5-5-5-5-5-5-5-5----5-5-8/-

 guitar 2 comes in with guitar 1 with this
D :------------------------------------------------------
A :------------------------------------------------------
F :7p0h7p0h7p0h7p0h12h15p12p8p7p0h7p0h7p0h7p0h8p7-8p7-8p7
c :------------------------------------------------------        2x
G :------------------------------------------------------
C :-----------------------------------------------------

  (guitar 1)
D :----------------------------------------------------------------------------------------------
A :----------------------------------------------------------------------------------------------
F :----------------------------------------------------------------------------------------------
c :1--1--1--1--1--1--1--1--1--1--1--1--1--1--1--1--5--5--5--5--5--5--5--5--5--5--5--5--5--5--5--5
G :1--1--1--1--1--1--1--1--1--1--1--1--1--1--1--1--5--5--5--5--5--5--5--5--5--5--5--5--5--5--5--5
C :1--1--1--1--1--1--1--1--1--1--1--1--1--1--1--1--5--5--5--5--5--5--5--5--5--5--5--5--5--5--5--5

  solo-(guitar 2)
D :--------------------------------------------------------------------------------------------------
A :---------------------------------------18-16-15-13-15-13-----------------------------------------------
F :12~--------------12-15^-14--15^-14~----------------------15-1415-12-14---------------------------------
c :-----------121315------------------------------------------------------15-13---------121513----------16^
G :-----------------------------------------------------------------------------121315-------17-15-17----
C :--------------------------------------------------------------------------------------------------

  Slows down-(guitar 1)
D :--------------------------------------------------------------------------
A :--------------------------------------------------------------------------
F :--------------------------------------------------------------------------
c :1-1-1---1~-----xxxxxx1-1-1--1-3-3-5-5--1-1-1---1-----xxxxxx1-1-1--3-3-5-5-
G :1-1-1---1~-----xxxxxx1-1-1--1-3-3-5-5--1-1-1---1-----xxxxxx1-1-1--3-3-5-5-
C :1-1-1---1~-----xxxxxx1-1-1--1-3-3-5-5--1-1-1---1-----xxxxxx1-1-1--3-3-5-5-

  (guitar 2)                                                                      4x
D :------------------------------------------------------
A :------------------------------------------------------
F :7^----7~----10-8-7-8--7-5-7--5-3-2-3------------------
c :-------------------------------------3----------------
G :------------------------------------------------------
C :------------------------------------------------------

  (guitars 1&2)
D :------------------------------------------------------
A :------------------------------------------------------
F :7^----------------------------------------------------
c :1-1-1--1~---------------------------------------------
G :1-1-1--1~---------------------------------------------
C :1-1-1--1~---------------------------------------------

Comments