Atreyu - My Sanity On The Funeral Pyre Chords & Tabs

 

My Sanity On The Funeral Pyre Chords & Tabs

Atreyu Chords & Tabs

Version: 1 Type: Bass Tab

My Sanity On The Funeral Pyre Bass Tab

   
Band- Atreyu
Song- My Sanity On The Funeral Pyre

Tuning: C G C F

 
Legend

b - bend
h - hammered	
~ - vibrato
<7> - natural harmonic	
 
0:00  Intro (guitard and drum)
 
F |-----------------------------------------------------------------|
C |-----------------------------------------------------------------|
G |-----------------------------------------------------------------|
C |-----------------------------------------------------------------|
 
0:17  	Riff # 1	            x6   0:32 Fill # 1           last time	
 
F ||---------------------------||  |--------------------------------|
C ||*-------------------------*||  |--------------------------------|
G ||*-------------------------*||  |--------------------------------| 
C ||-0-0-1-0-0-3-0-xxx-1-0-1-3-||  |-0-0-1-0-0-3-0-xxx-1-0-1-0~~~~~-|
 
0:40  Riff # 2			                    x4
 
F ||------------------------------------------------------||
C ||*----------------------------------------------------*||
G ||*---------------33------------------------33---------*||
C ||-0-0000-00-3-5-3---5-3-131-0-0000-00-3-5-3---5-3-131--||
 
0:59 Riff # 3 
 
F |-----------------------------------------------------------------
C |-----------------------------------------------------------------
G |-----------------------------------------------------------------
C |-0~~~00-1-111-111-111-1-0~~~00-1~~~3~~~33-0~~~00-1-111-111-111-1-
 
                1:08  Fill # 2
   ------------||--------------------------------|
   ------------||--------------------------------|
   ------------||--------------------------------|
   0~~~00-3~~~-||-333-333-333-555-555-555-555555-|
 
1:13 Riff # 4 	 		   	                      x2
 
F ||-----------------------------------------------------------------||
C ||*---------------------------------------------------------------*||
G ||*---------------------------------------------------------------*||
C ||-555-555-555-555-888-888-888-888-111-111-111-111-333-333-333-333-||
[ Tab from: http://www.guitartabs.cc/tabs/a/atreyu/my_sanity_on_the_funeral_pyre_btab.html ]
1:32 Riff # 1  	           x3    1:40 Fill # 3
 
F ||---------------------------||  |-------------------------------|
C ||*-------------------------*||  |-------------------------------|
G ||*-------------------------*||  |-------------------------------|
C ||-0-0-1-0-0-3-0-xxx-1-0-1-3-||  |-0-0-1-0-0-3-0-xxx-111-111-111-|
 
1:44 Riff # 2			                    x4
 
F ||------------------------------------------------------||
C ||*----------------------------------------------------*||
G ||*---------------33------------------------33---------*||
C ||-0-0000-00-3-5-3---5-3-131-0-0000-00-3-5-3---5-3-131--||
 
2:04 Riff # 3 
 
F |-----------------------------------------------------------------
C |-----------------------------------------------------------------
G |-----------------------------------------------------------------
C |-0~~~00-1-111-111-111-1-0~~~00-1~~~3~~~33-0~~~00-1-111-111-111-1-
 
	        2:13 Fill # 2
   ------------| |--------------------------------|
   ------------| |--------------------------------|
   ------------| |--------------------------------|
   0~~~00-3~~~-| |-333-333-333-555-555-555-555555-|

2:18 Riff # 4 			   	                      x2
 
F ||-----------------------------------------------------------------||
C ||*---------------------------------------------------------------*||
G ||*---------------------------------------------------------------*||
C ||-555-555-555-555-888-888-888-888-111-111-111-111-333-333-333-333-||

2:37 Riff # 5 	                       x2
 
F ||---------------------------------------||
C ||*-------------------------------------*||
G ||*-------------------------------------*||
C ||--11111-1111111-111/55555-5555555-888--||
 
2:57 Riff # 6
 
F |-----------------------------------------------------------------|
C |-----------------------------------------------------------------|
G |-----------------------------------------------------------------|
C |-111-111-111-111-111-111-111-111-555-555-555-555-555-555-555-555-|
 
3:06  Riff # 7	                  x2
 
F ||----------------------------------||
C ||*--------------------------------*||
G ||*--------------------------------*||
C ||--0-11-1~~~~~~0-11-1/3-3/5-55/88--||
 
3:17  Riff # 8	                    x2
 
F ||-------------------------------------||
C ||*-----------------------------------*||
G ||*-----------------------------------*||
C ||--0-11-1-1-0-xxxxxxx-0-11-13-35-588--||
 
0:00  outro
 
F |--------------------------------|
C |--------------------------------|
G |--------------------------------|
C |-0-11-1~~~~~~~~~~~~~~~~~~~~~~~--|