Atreyu - My Fork In The Road(your Knife In My Back) Chords & Tabs

 

My Fork In The Road(your Knife In My Back) Chords & Tabs

Atreyu Chords & Tabs

Version: 5 Type: Tab

My Fork In The Road(your Knife In My Back) Tab

Atreyu
My Fork in the Road (Your Knife in My Back)
A Deathgrip on Yesterday
Drop C Tuning

I've tabbed this song for one guitar even though it requires 2.

Intro [0:00-0:37] (3X)

All the bends have a slight bit of pinch harmonic on them. Notes in <> are
harmonics. m denotes a palm muted note...and believe me...there are plenty.
Atreyu just kinda randomly throws them into the song in sets. There are 7
in each riff except for the last riff which is played on the fourth time.

208 BPM

|---------------------------------------------------------------------------|
|----------------------------------------------------------------------12br-|
|------9br------------12br---------9-------10p9-----12------10--------------|
|---10-----10--10--10------10--10-----10--------10------10------10---10-----|
|-8-------------------------------------------------------------------------|
|---------------------------------------------------------------------------|
               m               m      m         m       m       m    m

|---------------------------------------------------------------------------|
|---------------------------------------------------------------------------|
|------9br------------------------------------------------------------------|
|---10-----10-10-10-9br---7--9---9--9--10p9--9--12--9--10--9---9--<9>h10p9--|
|-8-----------------------------------------------------------------------10|
|---------------------------------------------------------------------------|
              m              m      m        m      m      m   m  A.H.

End Riff (played on the fourth time):

|---------------------------------------------------------------------------|
|----------------------------------------------------------------------12br-|
|------9br------------12br---------9-------10p9-----12------10--------------|
|---10-----10--10--10------10--10-----10--------10------10------10---10-----|
|-8-------------------------------------------------------------------------|
|---------------------------------------------------------------------------|
               m               m      m         m       m       m    m

|---------------------------------------------------------------------------|
|---------------------------------------------------------------------------|
|------9br------------------------------------------------------------------|
|---10----10-10-10-9br--7-9--9--999--10--999999--12-999-10-999999---9h10p9--|
|-8-----------------------------------------------------------------------10|
|---------------------------------------------------------------------------|
             m            m     mmm      mmmmmm     mmm    mmmmmm

Verse: [0:37-0:56] (2x)
|-------------------------------| (4x)
|-------5--5--------------------|
|--5---------5------------------|
|--3----------------------------|
|--3----------------------------|
|--3----------------------------|

|-------------------------------| (3x)
|-------------------------------|
|--9----------------------------|
|--7---10-10p9------------------|
|--7----------------------------|
|--7----------------------------|
[ Tab from: http://www.guitartabs.cc/tabs/a/atreyu/my_fork_in_the_roadyour_knife_in_my_back_tab_ver_5.html ]
|-------------------------------| (1x)
|-------------------------------|
|--9-----7----------------------|
|--7--10---10p9-----------------|
|--7----------------------------|
|--7----------------------------|

Chorus: [0:56-1:05] (1x)
|---------------------------------|
|---------------------------------|
|-/14-/16/17-/1916/1714-----------|
|---------------------------------|
|-/12-/14/15-/1714/1512-----------|
|---------------------------------|
   s   s  s   s  s  s  s

|---------------------------------|
|---------------------------------|
|-14/1613~--97--------------------|
|---------------------------------|
|-12/1411~--75--------------------|
|---------------------------------|
  s  s  s     s

Verse: (2x) [1:05-1:23]
|-------------------------------| (4x)
|-------5--5--------------------|
|--5---------5------------------|
|--3----------------------------|
|--3----------------------------|
|--3----------------------------|

|-------------------------------| (3x)
|-------------------------------|
|--9----------------------------|
|--7---10-10p9------------------|
|--7----------------------------|
|--7----------------------------|

|-------------------------------| (1x)
|-------------------------------|
|--9-----7----------------------|
|--7--10---10p9-----------------|
|--7----------------------------|
|--7----------------------------|

Chorus: [1:23-1:32] (1x)

There's a slight variation this time...Travis fires off some
knuckle children...I mean...quick palm muted notes on the first
part of the chorus. There may be an artificial harmonic in
there somewhere near the end too, but I'm not 100% sure on that.

|------------------------------------------|
|------------------------------------------|
|-/14-/16/17-/1916/17----------14----------|
|----------------------12------------------|
|-/12-/14/15-/1714/15---1415---12----------|
|------------------------------------------|
  s   s  s   s  s  s    m m m

|---------------------------------|
|---------------------------------|
|-14/1613~--97--------------------|
|---------------------------------|
|-12/1411~--75--------------------|
|---------------------------------|
  s  s  s     s

Verse: [1:32-1:50]

There's a pretty big variation here...same chords and all, but a
few differences.

|-------------------------------|
|-------------------------------|
|--9--12-10-9-------------------|
|--7----------------------------|
|--7--10-8--7-------------------|
|--7----------------------------|

|---------------------------------------------|
|---------------------------------------------|
|--5------------------------------------------|
|--3--7-9-9-9-10p9-9-12-9-10-9-9--<9>h10p9----|
|--3---------------------------------------10-|
|--3------------------------------------------|

        m   m      m    m    m m

|---------------------------------|
|---------------------------------|
|--9--1716-10/12------------------|
|--7------------------------------|
|--7--1514-8-/10------------------|
|--7------------------------------|

It's getting pretty late. I'll finish this Wednesday when I don't have class. I'm not 
how accurate it is. It sounds alright to me, but who knows. At least it'll give others 
something to work with.