Atreyu - My Fork In The Road(your Knife In My Back) Chords & Tabs

 

My Fork In The Road(your Knife In My Back) Chords & Tabs

Atreyu Chords & Tabs

Version: 3 Type: Tab

My Fork In The Road(your Knife In My Back) Tab

ATREYU
MY FORK IN THE ROAD YOUR KNIFE IN MY BACK
INTRO
do pinch harmonics when it sounds right (throughout most of the intro)

D----------------------------------------------------------------7h8p7--|
A-------------------------8-8h10p8--------------------------------------|
F------9-9h10p9------------------------9-10p9--12-10--------------------|
C-10---------------10----------------10---------------------------------|
G-----------------------------------------------------------------------|
C-----------------------------------------------------------------------|

[ Tab from: http://www.guitartabs.cc/tabs/a/atreyu/my_fork_in_the_roadyour_knife_in_my_back_tab_ver_3.html ]
D-------------------------------------------------------------------------------------|
A-------------------------------------------------------------------------------------|
F------9-9h10p9-----------------------------------------------------------------------|
C-10--------------10--10--9h10p9--7--9--10p9---12---9--9h10p9-------------------------|
G---------------------------------------------------------------------------------10--|
C-------------------------------------------------------------------------------------|

and thats all of the intro........not really im to lazy to figure the last little part 
it but thats most of it.......so enjoy.....
(>'.')>