Atreyu - Lipgloss And Black Chords & Tabs

 

Lipgloss And Black Chords & Tabs

Atreyu Chords & Tabs

Version: 1 Type: Tab 6 ratings
1 star 2 stars 3 stars 4 stars 5 stars
comments

Lipgloss And Black Tab

This is the basic solo. Figure out the timing etc by listening to the song.

Standard tuning

|---------------------------------------------------------------------------------------------
|------12---15----------------------------------------------11--------9---------8---------
|--5--------------13—12h13h12--8--3-------10-8-7-8-----8-7-8---8-7-8----8-7-8-
|---------------------------------------------------------------------------------------------
|---------------------------------------------------------------------------------------------
|---------------------------------------------------------------------------------------------

|---------------------------------------------------------------18-------------16------------
|-------------11--------8---------9-8--------18-16-15-16------16-15-16----16-15-16-
|--10-8-7-8----8-7-8----8-8-7-----8-7-8--------------------------------------------------
|-----------------------------------------------------------------------------------------------
|-----------------------------------------------------------------------------------------------
|-----------------------------------------------------------------------------------------------
[ Tab from: http://www.guitartabs.cc/tabs/a/atreyu/lipgloss_and_black_tab.html ]
|-15-----------------------------18----------16----------------16---------------------------
|-----16-15-16---18-16-15-16----16-15---16-16-15-16----16-15-16---18/16/15-16
|-----------------------------------------------------------------------------------------------
|-----------------------------------------------------------------------------------------------
|-----------------------------------------------------------------------------------------------
|-----------------------------------------------------------------------------------------------

|18------------16-------------16-------------15------------------------------18---------
|---16-15-16-----16-15-16-----16-15-16-----16-15-16--18-16-15-16-----16-15-
|--------------------------------------------------------------------------------------------
|--------------------------------------------------------------------------------------------
|--------------------------------------------------------------------------------------------
|--------------------------------------------------------------------------------------------

|-16-----------------16-----------------16-----------------------------------------------
|-----16-16-15-16-----16-15-16-16-----16-15-16-15-------------------------------
|-------------------------------------------------------------------------------------------
|-------------------------------------------------------------------------------------------
|-------------------------------------------------------------------------------------------
|-------------------------------------------------------------------------------------------

Comments