Atreyu - Lip Gloss And Black Chords & Tabs

 

Lip Gloss And Black Chords & Tabs

Atreyu Chords & Tabs

Version: 8 Type: Tab

Lip Gloss And Black Tab

   
-------------------------------------------------------------------------------
			     Lip Gloss and Black - Atreyu
-------------------------------------------------------------------------------
Tabbed by: schecterguy
Email: chrissk8s2@aol.com

Tuning: C G C F A D

D|-------6-8-6-5~---5h6p5~---------------------------------------------------|
A|-----x---------------------5-----------------------------------------------|
F|---x---------------------------5~~-----------------------------------------|
C|--------------------------------------------5-555--5h6-66------------------|
G|---------------------------------------------------------------------------|
C|---------------------------------------------------------------------------|

D|---------8-------6-------5----------------8-----6-----5--------------------|
A|-8-6-5-6---6-5-6---6-5-6---6-5-6--8-6-5-6---6-5---6-5---6-5-6/18~----------|
F|---------------------------------------------------------------------------|
C|---------------------------------------------------------------------------|
G|---------------------------------------------------------------------------|
C|---------------------------------------------------------------------------|
[ Tab from: http://www.guitartabs.cc/tabs/a/atreyu/lip_gloss_and_black_tab_ver_8.html ]
D|-------------20----------18----------17------------------------------------|
A|-20-18-17-18----18-17-18----18-17-18----18-17-18---------------------------|
F|---------------------------------------------------------------------------|
C|---------------------------------------------------------------------------|
G|---------------------------------------------------------------------------|
C|---------------------------------------------------------------------------|

D|-------------20-------18-------17------------------------------------------|
A|-20-18-17-18----18-17----18-17----18-17-18-17-18--20-18-17h18p17-----------|
F|-----------------------------------------------------------------17--------|
C|---------------------------------------------------------------------------|
G|---------------------------------------------------------------------------|
C|---------------------------------------------------------------------------|

D|-20----------18----------17------------------------------------------------|
A|----18-17-18----18-17-18----18-17-18---------------------------------------|
F|---------------------------------------------------------------------------|
C|---------------------------------------------------------------------------|
G|---------------------------------------------------------------------------|
C|---------------------------------------------------------------------------|

D|----------------20-------18-------17---------------------------------------|
A|-18b20r18-17-18----18-17----18-17----18-17h18-17+~-------------------------|
F|---------------------------------------------------------------------------|
C|---------------------------------------------------------------------------|
G|---------------------------------------------------------------------------|
C|---------------------------------------------------------------------------|


| /  slide up
| \\\\  slide down
| h  hammer-on
| p  pull-off
| ~  let ring
| +  vibrato
| x  Mute note
===============================================================================