Atreyu - Lip Gloss And Black Chords & Tabs

 

Lip Gloss And Black Chords & Tabs

Atreyu Chords & Tabs

Version: 6 Type: Tab 0 ratings
1 star 2 stars 3 stars 4 stars 5 stars
comments

Lip Gloss And Black Tab

-----------------------------------------------------------------------------                        
ATREYU-LIP GLOSS AND BLACK
-----------------------------------------------------------------------------

TABBED BY:ROCANATIC(HECTOR JOVEL)
EMAIL:ROCANATIC@HOTMAIL.COM

TUNING:EADGBe(LOW TO HIGH) 
/=SLIDE UP
\=SLIDE DOWN
V=VIBRATO

|--------------------------------------6-------4-------3---------------6----|
|-/8-11-9-8--8/9\8-4-----------6-4-3-4---4-3-4---4-3-4---4-3-4-6-4-3-4---4-3|
|--------------------3-------4----------------------------------------------|
|---------------------------------------------------------------------------|
|---------------------------------------------------------------------------|
|---------------------------------------------------------------------------|
[ Tab from: http://www.guitartabs.cc/tabs/a/atreyu/lip_gloss_and_black_tab_ver_6.html ]
|-----4-----3---------------------18----------16----------15----------------|
|-4-3---4-3---4-3-4-3/18-16-15-16----16-15-16----16-15-16----16-15-16-18-16-|
|---------------------------------------------------------------------------|
|---------------------------------------------------------------------------|
|---------------------------------------------------------------------------|
|---------------------------------------------------------------------------|

|-------18-------16-------15---------------18----------16----------15-------|
|-15-16----16-15----16-15------18-16-15-16----16-15-16----16-15-16----16-15-|
|---------------------------------------------------------------------------|
|---------------------------------------------------------------------------|
|---------------------------------------------------------------------------|
|---------------------------------------------------------------------------|

|----------------18-------16-------15---------------------------------------|
|-16-18-16-15-16----16-15----16-15-----16-15-16-15V-------------------------|
|---------------------------------------------------------------------------|
|---------------------------------------------------------------------------|
|---------------------------------------------------------------------------|
|---------------------------------------------------------------------------|
Comments