Atreyu - Lip Gloss And Black Chords & Tabs

 

Lip Gloss And Black Chords & Tabs

Atreyu Chords & Tabs

Version: 3 Type: Tab 0 ratings
1 star 2 stars 3 stars 4 stars 5 stars
comments

Lip Gloss And Black Tab

-------------------------------------------------------------------------------
			     LIP GLOSS AND BLACK - Atreyu
-------------------------------------------------------------------------------
Tabbed by: Nick Manning
Email:Shibby6991@hotmail.com

Tuning: EADGBE - Standard

If you want to play the solo in standard tuning like I did here you go:


E|----------------------------|-------------|-------------|
B|----------------------------|-------------|-------------|
G|--10/12-15--13-12--12p13p12-|-------------|-------------|
D|----------------------------|-13----------|-------------|
A|----------------------------|----15-13~~~~|~~~~~~~~-----|
E|----------------------------|-------------|-------------|

E|--------------------------------------------|
B|--------------------------------------------|
G|-------------15--------13--------12---------| x2   
D|--15-13-12-13--13-12-13--13-12-13--13-12-13-|
A|--------------------------------------------|
E|--------------------------------------------|
[ Tab from: http://www.guitartabs.cc/tabs/a/atreyu/lip_gloss_and_black_tab_ver_3.html ]
E|--------------------------------------------|
B|--------------------------------------------|
G|-------------18--------16--------15---------| x2
D|--18-16-15-16--16-15-16--16-15-16--16-15-16-|
A|--------------------------------------------|
E|--------------------------------------------|

E|-----------------------------16--------15---------|
B|--16/18\16-15p16p15--16-15-16--16-15-16--16-15-16-|
G|-------------------15-----------------------------|
D|--------------------------------------------------|
A|--------------------------------------------------|
E|--------------------------------------------------|

E|-----------------------------16--------15---------|-------------|
B|--16/18\16-15p16p15--16-15-16--16-15-16--16-15-16-|-15~~~~~~~~--|
G|-------------------15-----------------------------|-------------|
D|--------------------------------------------------|-------------|
A|--------------------------------------------------|-------------|
E|--------------------------------------------------|-------------|

There's a little bit of variation on a few parts but that's basically it.
Comments