Atreyu - Lip Gloss And Black Chords & Tabs

 

Lip Gloss And Black Chords & Tabs

Atreyu Chords & Tabs

Version: 2 Type: Tab 0 ratings
1 star 2 stars 3 stars 4 stars 5 stars
comments

Lip Gloss And Black Tab

Artist: Atreyu
Submitted By: Thienskater
Great band! great song, enjoi


Intro:
Guitar 1

Let off the 14 tap at the SAME TIME you hammer the 7
D--------------------------------------------------------------------------------
A--------------------------------------------------------------------------------
F-14t-h7h10-14-h7h10-14t-h7h10-14-h7h10------------------------------------------
C----------------------------------------14t-h7h10-14-h7h10-14t-h7h10-14-h7h10---
G--------------------------------------------------------------------------------
C--------------------------------------------------------------------------------

Guitar 2 comes in with a counter melody of:
D--------------------------------------------------------------------------------
A--------------------------------------------------------------------------------
F--------------------------------------------------------------------------------
C-12t-h5h8-12t-h5h8-12t-h5h8-12t-h5h8--------------------------------------------
G-------------------------------------12t-h5h8-12t-h5h8-12t-h5h8-12t-h5h8--------
C--------------------------------------------------------------------------------

Verse:

Guitar 1 is still playing that riff

Guitar 2
D------------------------------------------------------------
A------------------------------------------------------------
F------------------------------------------------------------
C--0----------------8--------------0---------10---8------7---
G--0----------------8--------------0---------10---8------7---
C--0----------------8--------------0---------10---8------7---
Repeat Until Chorus

Chorus:
Guitar 1
D--------------------------------------------------------------------------
A--------------------------------------------------------------------------
F-7--7-9-10-9--9-10-12-1010--1414--12-14-12-1010--10-12-14-1212--12-10-9-
C--------------------------------------------------------------------------
G-5--5-7-8--7--7-8--10-8-8---1212--10-12-10-8-8---8--10-12-1010--10-8--7-
C--------------------------------------------------------------------------

D------------------------------------------
A------------------------------------------
F-:-:-:---:-10\-:-:---:-:-:---:-10\-:-:----
C-0-0-0---0-----0-0---0-0-0---0-----0-0----
G-0-0-0---0-8\--0-0---0-0-0---0-8\--0-0----
C-0-0-0---0-----0-0---0-0-0---0-----0-0----

D-----------------------------------------------------------------------------
A-----------------------------------------------------------------------------
F-7--7-9-10-9--9-10-12-1010--1414--12-14-12-1010--10-12-14-1212--12-10-9-7~-
C-----------------------------------------------------------------------------
G-5--5-7-8--7--7-8--10-8-8---1212--10-12-10-8-8---8--10-12-1010--10-8--7-5~-
C-----------------------------------------------------------------------------

D------------
A------------
F------------
C--10--12----
G--10--12----
C--10--12----

Guitar 2

D--------------------------------------------------
A--------------------------------------------------
F--------------------------------------------------
C--7--777--9-999--3~-------------7--777--9-999-----
G--5--555--7-777--3~-------------5--555--7-777-----
C-----------------3~-------------------------------

D-------------------------------------------
A-------------------------------------------
F-:-:-:---:-10\-:-:---:-:-:---:-10\-:-:-----
C-0-0-0---0-----0-0---0-0-0---0-----0-0-----
G-0-0-0---0-8\--0-0---0-0-0---0-8\--0-0-----
C-0-0-0---0-----0-0---0-0-0---0-----0-0-----

D------------------------------------------------------
A------------------------------------------------------
F------------------------------------------------------
C--7--777--9-999--5~-------------7--777--9-999--0~-----
G--5--555--7-777--5~-------------5--555--7-777--0~-----
C-----------------5~----------------------------0~-----

D----------
A----------
F----------
C-10--12---
G-10--12---
C-10--12---


Verse 2:
Guitar 1
Pause before playing:
D----------------------------
A----------------------------
F----------------------------
C--10--1010--12--1212---0----
G--10--1010--12--1212---0----
C--10--1010--12--1212---0----

D----------------------------------------------
A----------------------------------------------
F-----:--------:--------:----------------------
C--0--0---0-8--8---8-3--3---3---3---3-2---2----
G--0--0---0-8--8---8-3--3---3---3---3-2---2----
C--0--0---0-8--8---8-3--3---3---3---3-2---2----

D----------------------------------------------------
A----------------------------------------------------
F-----:--------:--------:----------------------------
C--0--0---0-8--8---8-3--3---3---10---10-12---12-0----
G--0--0---0-8--8---8-3--3---3---10---10-12---12-0----
C--0--0---0-8--8---8-3--3---3---10---10-12---12-0----


D-----------------------
A-----------------------
F-----:--------:--------
C--0--0---0-8--8---8----
G--0--0---0-8--8---8----
C--0--0---0-8--8---8----

Guitar 2
D----------------------------------------------------
A----------------------------------------------------
F-----:--------:--------:----------------------------
C--0--0---0-8--8---8-3--3---3---10---10-12---12-0----
G--0--0---0-8--8---8-3--3---3---10---10-12---12-0----
C--0--0---0-8--8---8-3--3---3---10---10-12---12-0----

D----------------------------------------------
A----------------------------------------------
F-----:--------:--------:----------------------
C--0--0---0-8--8---8-3--3---3---3---3-2---2----
G--0--0---0-8--8---8-3--3---3---3---3-2---2----
C--0--0---0-8--8---8-3--3---3---3---3-2---2----

D----------------------------------------------------
A----------------------------------------------------
F-----:--------:--------:----------------------------
C--0--0---0-8--8---8-3--3---3---10---10-12---12-0----
G--0--0---0-8--8---8-3--3---3---10---10-12---12-0----
C--0--0---0-8--8---8-3--3---3---10---10-12---12-0----


D-----------------------
A-----------------------
F-----:--------:--------
C--0--0---0-8--8---8----
G--0--0---0-8--8---8----
C--0--0---0-8--8---8----

Bridge:
Both Guitars
D---------
A----:----
F--***----
C--000----
G--000---- Play 64x (?)
C--000----
[ Tab from: http://www.guitartabs.cc/tabs/a/atreyu/lip_gloss_and_black_tab_ver_2.html ]
Guitar 1:
A----|---------|----------------------------------------------|-
D----|-14-12-9-|----------------------------14-12-9-----------|-  Play 4x
F----|---------|.--------------------------------------------.|-
C--3-|---------|.-0-----8-----0-----8------------------------.|-
G--3-|---------|--0-----8-----0-----8-------------------------|-
C--3-|---------|--0-----8-----0-----8-------------------------|-

Guitar 2:
A---|--------------------------------------------|---------------|----------|-
D---|--------------------------------------------|---------------|--6-5-----|-
F-2-|.--------2--------------------------------2-|- Play 2x then-|------5--.|- Play 4x
C---|.3--3--3---3--3-----2----------2------------|---------------|---------.|-
G---|-----------------3-----3--3--3---3--3--0----|---------------|----------|-
C---|--------------------------------------------|---------------|----------|-

Repeat Chorus

Then:
Guitar 1 only
A----------------
D----------------
F-:--:--:-:-:----
C-0--0--0-0-0---- Play 8x
G-0--0--0-0-0----
C-0--0--0-0-0----

Guitar 1

A|-----------
D|--14-12-9--
F|.----------
C|.----------
G|-----------
C|-----------

D-------------------------------------------
A-------------------------------------------
F-:-:-:---:-10\-:-:---:-:-:---:-10\-:-:-----
C-0-0-0---0-----0-0---0-0-0---0-----0-0-----
G-0-0-0---0--8\-0-0---0-0-0---0--8\-0-0-----
C-0-0-0---0-----0-0---0-0-0---0-----0-0-----

D---------------------------------|---
A---------------------------------|---
F-:-:-:---:-10\-:-:---:-:-:---:--.|--- Play 4x
C-0-0-0---0-----0-0---0-0-0---0--.|---
G-0-0-0---0--8\-0-0---0-0-0---0---|---
C-0-0-0---0-----0-0---0-0-0---0---|---

D----------------------------
A----------------------------
F-:--:----:--:---------------
C-0--0----0--0---------0-----
G-0--0----0--0---------0-----
C-0--0----0--0---------0-----

Guitar 2

A|------------
D|------------
F|.--10-9-5---
C|.-----------
G|------------
C|------------

D---------------------------------|---
A---------------------------------|---
F-:-:-:---:-10\-:-:---:-:-:---:--.|--- Play 4x
C-0-0-0---0-----0-0---0-0-0---0--.|---
G-0-0-0---0--8\-0-0---0-0-0---0---|---
C-0-0-0---0-----0-0---0-0-0---0---|---

D----------------------------
A----------------------------
F-:--:----:--:---------------
C-0--0----0--0---------0-----
G-0--0----0--0---------0-----
C-0--0----0--0---------0-----


I tabbed out the basic piano for the hell of it
D----------------------------------------------------------
A----------------------------------------------------------
F------------------------------------7---------------------
C-------8---8-7--5--7--5---5--8--7-----7--8---8-7--5--7----
G---5-8------------------8---------------------------------
C----------------------------------------------------------

And then:
Guitar 1 (clean):
D-|------------------------------------------------------
A-|--13-------13-------13----15-------15-------15--------
F-|.-----14-------14-------14----14-------14-------14----
C-|.--------15-------15-------------15-------15----------
G-|------------------------------------------------------
C-|------------------------------------------------------

D---------------------------12-------12-------12-------12--------|--
A---13-------13-------13-----------------------------------------|--
F------14-------14-------14----14-------14-------14-------14----.|--  Play 2x
C---------15-------15-------------15-------15-------15-------15-.|--
G----------------------------------------------------------------|--
C----------------------------------------------------------------|--

Guitar 2 (clean and soft) (begins before guitar 1):
D-------------------------------------------------
A-------10----------10------------11--------13----
F----10----10-12-10----10------10-------10-------- Play 4x
C-12------------------------12-------12-----------
G-------------------------------------------------
C-------------------------------------------------

D--------------------------------------------
A-------10----------10----------10-----------
F----10----10-12-12----10-12-12----10-12-----
C-12-----------------------------------------
G--------------------------------------------
C--------------------------------------------

\\\\\pick slides, both guitars\\\\\\\

Guitar Solo:
Lead guitar
D-------------------------------------------------------------------
A------13--11-------------------------------------------------------
F---14--------14---14h15p14-----------------------------------------
C-----------------------------15------------------------------------
G--------------------------------15v--------------------------------
C---------------------------------------10-10-10-10-11-11-11-11-----

D-------------------------------------------------------------------------
A-----------13-------11-------10------------------13----11----------------
F-12-10-9-10--10-9-10--10-9-10--10-9-10-12-10-9-10--10-9--10-9-10-9-10/22-
C-------------------------------------------------------------------------
G-------------------------------------------------------------------------
C-------------------------------------------------------------------------

D------------20--------18--------17---------------------20-----18-----17---------------
A-20-18-17-18--18-17-18--18-17-18--18-17-18-20b-18-17-18--18-17--18-17--18-17-18-17-18-
F--------------------------------------------------------------------------------------
C--------------------------------------------------------------------------------------
G--------------------------------------------------------------------------------------
C--------------------------------------------------------------------------------------

D------------------------18--------17--------------------20-----18-----17----------------
A-20-18-17h18p15--18-17-18--18-17-18--18-17-18-20-18-17-18--18-17--18-17--18-17--17-18-17
F--------------17------------------------------------------------------------------------
C----------------------------------------------------------------------------------------
G----------------------------------------------------------------------------------------
C----------------------------------------------------------------------------------------

Rhythm guitar (All notes played 4x)
D-----------------------
A-----------------------
F-----------------------
C-0-0-8-8-10-10-10-10---  Play 4x
G-0-0-8-8-10-10-10-10---
C-0-0-8-8-10-10-10-10---

D-------
A-------
F-------
C--0----
G--0----
C--0----
Comments