Atreyu - Her Portrait In Black Chords & Tabs

 

Her Portrait In Black Chords & Tabs

Atreyu Chords & Tabs

Version: 3 Type: Tab

Her Portrait In Black Tab

Song: Her Portrait In Black
Band: Atreyu {2006}
Album: Underworld evolution soundtrack

|------------------------------------------------------------------|
|------------------------------------------------------------------|
|------------------------------------------------------------------|
|-slowly fade in~-----------12~let it ring-------------------------|
|------------------------------------------------------------------|
|------------------------------------------------------------------|


|-------------------------------------------------------------------|
|-------------------------------------------------------------------|
|-------------------------------------------------------------------|
|---------0--3--------0-2-3----3-5-7-2------------------------------| x2
|-------5-----------------------------------------------------------|
|-------------------------------------------------------------------|


|------------------------------------------------------------------|
|------------------------------------------------------------------|
|-------0-3----0-2-3-----3-2-0-------------------------------------|
|------------------------------3-----------------------------------| x2
|------------------------------------------------------------------|
|--0-0-------0--------0--------------------------------------------|


repeat these two part, til 00:42
then:

|-----------------------------------------------------------------------|
|-----------------------------------------------------------------------|
|-----------------------------------------------------------------------|
|-0---0-2-3-0-----------------------------------------------------------|
|-0------------5--4-----------------------------------------------------|
|-0---------------------------------------------------------------------|

Guitar 1
|---------------------------------------------------------------------|
|---------------------------------------------------------------------|
|---------------------------------------------------------------------|
|---------------------------------------------------------------------|
|---------------------------------------------------------------------|
|-0-0-0-0-0-0-0-0-0-0-0-0-0-0-0-0-8-8-8-8-8-8-8-8-8-5-5-5-5-5-5-5-5-5-|

Guitar 2                                                   x2 both guitars
|---------------------------------------------------------------------|
|---------------------------------------------------------------------|
|---------------------------------------------------------------------|
|---0-2-3-0-------0-2-3-0-----------3-5-7-3-----------3-5-7-3-2-------|
|-------------------------4-------------------------------------------|
|---------------------------------------------------------------------|

and just before chorus:
|---------------------------------------------------------------------|
|---------------------------------------------------------------------|
|------------------10-10-10-10-10--12-12-12-12-12-12-12-12------------|
|--5-5-5-5-5-5-5-5--8-8-8-8-8-8-8--10-10-10-10-10-10-10-10------------|
|--5-5-5-5-5-5-5-5--8-8-8-8-8-8-8--10-10-10-10-10-10-10-10------------|
|--5-5-5-5-5-5-5-5--8-8-8-8-8-8-8--10-10-10-10-10-10-10-10------------|

Chorus:
Guitar 1
|---------------------------------------------------------------------|
|---------------------------------------------------------------------|
|-5-7-7-7-7-7-7-7-7-7--9-10-10-10-10-10-10-10-------------------------|
|-x-x-x-x-x-x-x-x-x-x--x-x-x-x-x-x-x-x-x-x-x--------------------------|
|-3-5-5-5-5-5-5-5-5-5--7-8-8-8-8-8-8-8-8-8-8--------------------------|
|---------------------------------------------------------------------|
                                                   Both Guitars x4
Chorus:
Guitar 2              
|---------------------------------------------------------------------|
|---------------------------------------------------------------------|
|---------------------------------------------------------------------|
|-8-8-8-8-8-8-8-8-8-8--0-0-0-0-0-0-0-0-0-0-0-0------------------------|
|-8-8-8-8-8-8-8-8-8-8--0-0-0-0-0-0-0-0-0-0-0-0------------------------|
|-8-8-8-8-8-8-8-8-8-8--0-0-0-0-0-0-0-0-0-0-0-0------------------------|


Then:
|---------------------------------------------------------------------|
|---------------------------------------------------------------------|
|---------------------------------------------------------------------|
|----------------------------------------4-4-1-1-----11*--------------|
|----------------------------------------4-4-1-1----------------------|
|-1-0-3-1-1-1-0-3-1-1-1-0-3-1-1-1-0-3-5--4-4-1-1----------------------|


|---------------------------------------------------------------------|
|---------------------------------------------------------------------|
|---------------------------------------------------------------------|
|----------------------------------------4-4-1-1-----0----------------|
|----------------------------------------4-4-1-1-----0-let it ring----|
|-1-0-3-1-1-1-0-3-1-1-1-0-3-1-1-1-0-3-5--4-4-1-1-----0----------------|


|---------------------------------------------------------------------|
|---------------------------------------------------------------------|
|---------------------------------------------------------------------|
|----------------------------------------4-4-1-1--4-4-1-1-------------|
|----------------------------------------4-4-1-1--4-4-1-1-------------|
|-1-0-3-1-1-1-0-3-1-1-1-0-3-1-1-1-0-3-5--4-4-1-1--4-4-1-1-------------|
[ Tab from: http://www.guitartabs.cc/tabs/a/atreyu/her_portrait_in_black_tab_ver_3.html ]
Chorus:
Guitar 1
|---------------------------------------------------------------------|
|---------------------------------------------------------------------|
|-5-7-7-7-7-7-7-7-7-7--9-10-10-10-10-10-10-10-------------------------|
|-x-x-x-x-x-x-x-x-x-x--x-x-x-x-x-x-x-x-x-x-x--------------------------|
|-3-5-5-5-5-5-5-5-5-5--7-8-8-8-8-8-8-8-8-8-8--------------------------|
|---------------------------------------------------------------------|
                                                   Both Guitars x4
Chorus:
Guitar 2              
|---------------------------------------------------------------------|
|---------------------------------------------------------------------|
|---------------------------------------------------------------------|
|-8-8-8-8-8-8-8-8-8-8--0-0-0-0-0-0-0-0-0-0-0-0------------------------|
|-8-8-8-8-8-8-8-8-8-8--0-0-0-0-0-0-0-0-0-0-0-0------------------------|
|-8-8-8-8-8-8-8-8-8-8--0-0-0-0-0-0-0-0-0-0-0-0------------------------|

Solo:      Guitar 1
|-15--17--18---13-17---15-13-15---13-11-13---15-13-15---17-15-17---|
|------------------------------------------------------------------|
|------------------------------------------------------------------|
|------------------------------------------------------------------|
|------------------------------------------------------------------|
|------------------------------------------------------------------|

|-15---17-18---20---22---------------------------------------------|
|------------------------------------------------------------------|
|------------------------------------------------------------------|
|------------------------------------------------------------------|
|------------------------------------------------------------------|
|------------------------------------------------------------------|

OR

solo   (2:25 - 2:42)
Tazer/wah effect, not quiet sure..E-mail me if u no tht effect
e|------------------------------------------------------------------------9-|
B|-------10-11~---10-----------------------------10-11h13--------10-11~-13--|
G|-5/12~------------12br12p10h12--12p10----10h12------------5/12~-----------|
D|--------------------------------------12----------------------------------|
A|--------------------------------------------------------------------------|
E|--------------------------------------------------------------------------|


Guitar 2 in solo:
|------------------------------------------------------------------|
|------------------------------------------------------------------|
|------------------------------------------------------------------|
|-5-5-5-5-5-5--1-1-1-1-1-1--8-8-8-8-8-8--3-3-3-4-4-4---------------|
|-5-5-5-5-5-5--1-1-1-1-1-1--8-8-8-8-8-8--3-3-3-4-4-4---------------|
|-5-5-5-5-5-5--1-1-1-1-1-1--8-8-8-8-8-8--3-3-3-4-4-4---------------|

Then: (She's Bleeding Out)
|------------------------------------------------------------------|
|------------------------------------------------------------------|
|------------------------------------------------------------------|
|------------------------------------------------------------------|
|------------------------------------------------------------------|
|1-0-3-1-1-1-0-3-1-1-1-0-3-1-1-1-0-3-1-1-1-0-3-1-1-1-0-3-1-1-1-0---|


Interlude:
|------------------------------------------------------------------|
|-11-11-11-11-10-10--10-10---11-11-11-11-10-10-10-10---------------|
|-10-10-10-10--9--9--9--9----10-10-10-10--9--9--9--9---------------|
|-8--8--8--8---7--7--7--7----8--8--8--8---7--7--7--7---------------|
|------------------------------------------------------------------|
|------------------------------------------------------------------|

Then:
|------------------------------------------------------------------|
|------------------------------------------------------------------|
|------------------------------------------------------------------|
|-8-8-8-8-8-8--0-0-0-0-0-0--5-5-5-5-5-5--5-5-5-5-5-5---------------|
|-8-8-8-8-8-8--0-0-0-0-0-0--3-3-3-3-3-3--5-5-5-5-5-5---------------|
|-8-8-8-8-8-8--0-0-0-0-0-0---------------5-5-5-5-5-5---------------|

Chorus:
Guitar 1
|---------------------------------------------------------------------|
|---------------------------------------------------------------------|
|-5-7-7-7-7-7-7-7-7-7--9-10-10-10-10-10-10-10-------------------------|
|-x-x-x-x-x-x-x-x-x-x--x-x-x-x-x-x-x-x-x-x-x--------------------------|
|-3-5-5-5-5-5-5-5-5-5--7-8-8-8-8-8-8-8-8-8-8--------------------------|
|---------------------------------------------------------------------|
                                                   Both Guitars x8
Chorus:
Guitar 2              
|---------------------------------------------------------------------|
|---------------------------------------------------------------------|
|---------------------------------------------------------------------|
|-8-8-8-8-8-8-8-8-8-8--0-0-0-0-0-0-0-0-0-0-0-0------------------------|
|-8-8-8-8-8-8-8-8-8-8--0-0-0-0-0-0-0-0-0-0-0-0------------------------|
|-8-8-8-8-8-8-8-8-8-8--0-0-0-0-0-0-0-0-0-0-0-0------------------------|

finaly:
|---------------------------------------------------------------------|
|---------------------------------------------------------------------|
|---------------------------------------------------------------------|
|-15~14---------------------------------------------------------------|
|-13~12~--------------------------------------------------------------|
|---------------------------------------------------------------------|

Moded by jack