Atreyu - Exs And Ohs Chords & Tabs

 

Exs And Ohs Chords & Tabs

Atreyu Chords & Tabs

Version: 1 Type: Bass Tab

Exs And Ohs Bass Tab

   
-------------------------------------------------------------------------------
			     Ex's And Oh's - ATREYU
-------------------------------------------------------------------------------

Tabbed By : Mikey-H		 
e-mail: retarded_elephant69@hotmail.com		 

Tuning:F,C,G,C.

F|-------------------------------------------------------------------------|
C|-------------------------------------------------------------------------|
G|--7-7-7-7-7-7-7-7-7-7-7-7-7-7-7-7---5-5-5-5-5-5-5-5-5-5-5-5-5-5-5-5------|
C|-------------------------------------------------------------------------|

F|-------------------------------------------------------------------------|
C|-------------------------------------------------------------------------|
G|--3-3-3-3-3-3-3-3-3-3-3-3-3-3-3-3---2-2-2-2-2-2-2-2-2-2-2-2-2-2-2-2------|
C|-------------------------------------------------------------------------|

F|-------------------------------------------------------------------------|
C|-------------------------------------------------------------------------|
G|--7-7-7-7-7-7-7-7-7-7-7-7-7-7-7-7---5-5-5-5-5-5-5-5-5-5-5-5-5-5-5-5------|
C|-------------------------------------------------------------------------|

F|-------------------------------------------------------------------------|
C|-------------------------------------------------------------------------|
G|--3-3-3-3-3-3-3-3-3-3-3-3-3-3-3-3--2-2-2-2-2-2-2-2-2-2-2-2-5-3-2---------|
C|-------------------------------------------------------------------------|

F|-------------------------------------------------------------------------|
C|---------------------------------------------------------3-2-------------|
G|--5--2-2--2-2-2--2--2-2--2-2-2--2--2-2--2-2-2--2--2-2--2-----5-2---------|
C|-------------------------------------------------------------------------|

F|-------------------------------------------------------------------------|
C|-------------------------------------------------------------------------|
G|--0-0--0-0-0--0--0-0--0-0-0--0--2-2-2-2-2-2-2-2-2-2-2-2-2-2-2-2----------|
C|-------------------------------------------------------------------------|

F|-------------------------------------------------------------------------|
C|-------------------------------------------------------------------------|
G|------------------------------------------------------3-2----------------|
C|--2-2--2-2-2--2--2-2--2-2-2--2--2-2--2-2-2--2--2-2--2-----5-2------------|

F|-------------------------------------------------------------------------|
C|-------------------------------------------------------------------------|
G|--------------------------------2-2-2-2-2-2-2-2-2-2-2-2-2-2-2--2---------|
C|--0-0--0-0-0--0--0-0--0-0-0--0-------------------------------------------|

F|-------------------------------------------------------------------------|
C|-------------------------------------------------------------------------|
G|--7-7-7-7-7-7-7-7-7-7-7-7-7-7-7-7--5-5-5-5-5-5-5-5-5-5-5-5-5-5-5-5-------|
C|-------------------------------------------------------------------------|

F|-------------------------------------------------------------------------|
C|-------------------------------------------------------------------------|
G|--3-3-3-3-3-3-3-3-3-3-3-3-3-3-3-3--2-2-2-2-2-2-2-2-2-2-2-2-2-2-2-2-------|
C|-------------------------------------------------------------------------|

F|-------------------------------------------------------------------------|
C|-------------------------------------------------------------------------|
G|--7-7-7-7-7-7-7-7-7-7-7-7-7-7-7-7--5-5-5-5-5-5-5-5-5-5-5-5-5-5-5-5-------|
C|-------------------------------------------------------------------------|

F|-------------------------------------------------------------------------|
C|-------------------------------------------------------------------------|
G|--3-3-3-3-3-3-3-3-3-3-3-3-3-3-3-3--2-2-2-2-2-2-2-2-2-2-2-2-5-3-2---------|
C|-----------------------------------------------------------------5-------|

F|-------------------------------------------------------------------------|
C|------------------------------------------------------3-2----------------|
G|--2-2--2-2-2--2--2-2--2-2-2--2--2-2--2-2-2--2--2-2--2-----5-2------------|
C|-------------------------------------------------------------------------|

F|-------------------------------------------------------------------------|
C|-------------------------------------------------------------------------|
G|--0-0--0-0-0--0--0-0--0-0-0--0--2-2-2-2-2-2-2-2-2-2-2-2-5-3-2------------|
C|--------------------------------------------------------------5----------|

F|-------------------------------------------------------------------------|
C|-------------------------------------------------------------------------|
G|-------------------------------------------------------------------------|
C|--2-2-2-2-2-2-2-2-2-2-2-2-2-5-2-5----------------------------------------|

F|-------------------------------------------------------------------------|
C|-------------------------------------------------------------------------|
G|-------------------------------------------------------------------------|
C|--2-2-2-2-2-2-2-2-2-2-2-2-0-2-2--0-0-0-0-0-0-0-0-0-0-0-0-2-0-0-----------|
[ Tab from: http://www.guitartabs.cc/tabs/a/atreyu/exs_and_ohs_btab.html ]
F|-------------------------------------------------------------------------|
C|-------------------------------------------------------------------------|
G|--3-3-3-3-3-3-3-3-3-3-3-3-3-3-3-3-3-3-3-3-3-3-3-3------------------------|
C|-------------------------------------------------------------------------|

F|-------------------------------------------------------------------------|
C|-------------------------------------------------------------------------|
G|--2-2-2-2-2-2-2-2--------------------------------------------------------|
C|-------------------2-2-2-2-2-2-2-2--5-5-5-5-5-5-5-5----------------------|

F|-------------------------------------------------------------------------|
C|-------------------------------------------------------------------------|
G|--3-3-3-3-3-3-3-3--2-2-2-2-2-2-2-----------------------------------------|
C|----------------------------------1----1----1----1----2----2----2--------|

F|-------------------------------------------------------------------------|
C|-------------------------------------------------------------------------|
G|--------3-3-3-3-3-3-3-3--2-2-2-2-2-2-2-2---------------------------------|
C|-2-2-2-------------------------------------------------------------------|

F|-------------------------------------------------------------------------|
C|-------------------------------------------------------------------------|
G|-----------------------------------3-3-3-3-3-3-3-3--2-2-2-2-2-2-2--------|
C|--2-2-2-2-2-2-2-2-5-5-5-5-5-5-5-5----------------------------------1-----|

                                    (theres like a 2 second break here)
F|-------------------------------------------------------------------------|
C|-------------------------------------------------------------------------|
G|-------------------------------------------------------------------------|
C|--1----1----1----2----2----2----2----1----1----1----1----2---(break)-----|

F|-------------------------------------------------------------------------|
C|-------------------------------------------------------------------------|
G|-3-3-3-3-3-3-3-3--3-3-3-3-3-3-3-3------------------------------=---------|
C|-------------------------------------2-2-2-2-2-2-2--2-2-2-2-2-2-2-2------|

F|-------------------------------------------------------------------------|
C|-------------------------------------------------------------------------|
G|--3-3-3-3-3-3-3-3--3-3-3-3-3-3-3-3---------------------------------------|
C|-----------------------------------1----1----1----1----2----2----2-------|

F|-------------------------------------------------------------------------|
C|-------------------------------------------------------------------------|
G|-------3-3-3-3-3-3-3-3--3-3-3-3-3-3-3-3----------------------------------|
C|-2-2-2---------------------------------2-2-2-2-2-2-2-2--2-2-2-2-2-2-2-2--|

F|-------------------------------------------------------------------------|
C|-------------------------------------------------------------------------|
G|--3-3-3-3-3-3-3-3-3-3-3-3-3-3-3------------------------------------------|
C|--------------------------------1----1----1----1----2----2----2----2-----|

  (break 3 sec)
F|-------------------------------------------------------------------------|
C|--------------(hold This Note for about 12 secs)-------------------------|
G|----------------2~~~~~~~~~~~~~~~~~~~~~~~~~~~~~~--------------------------|
C|-------------------------------------------------------------------------|
   
F|-------------------------------------------------------------------------|
C|-------------------------------------------------------------------------|
G|-------------------------------------------------------------------------|
C|--2-2-2-2-2-2-2-2--2-2-2-2-2-2-2-2-0-0-0-0-0-0-0-0--0-0-0-0-0-0-0-0------|

F|-------------------------------------------------------------------------|
C|-------------------------------------------------------------------------|
G|--3-3-3-3-3-3-3-3--3-3-3-3-3-3-3-3-2---2~~~~~~~~-------------------------|
C|-------------------------------------------------------------------------|

F|-------------------------------------------------------------------------|
C|-------------------------------------------------------------------------|
G|--7-7-7-7-7-7-7-7--7-7-7-7-7-7-7-7--5-5-5-5-5-5-5-5--5-5-5-5-5-5-5-5-----|
C|-------------------------------------------------------------------------|

F|-------------------------------------------------------------------------|
C|-------------------------------------------------------------------------|
G|--3-3-3-3-3-3-3-3--3-3-3-3-3-3-3-3--2-2-2-2-2-2-2-2--2-2-2-2-2-2-2-2-----|
C|-------------------------------------------------------------------------|

F|-------------------------------------------------------------------------|
C|-------------------------------------------------------------------------|
G|--7-7-7-7-7-7-7-7--7-7-7-7-7-7-7-7--5-5-5-5-5-5-5-5--5-5-5-5-5-5-5-5-----|
C|-------------------------------------------------------------------------|

F|-------------------------------------------------------------------------|
C|-------------------------------------------------------------------------|
G|-3-3-3-3-3-3-3-3--3-3-3-3-3-3-3-3--2-2-2-2-2-2-2-2-----------------------|
C|-------------------------------------------------------------------------|

F|-------------------------------------------------------------------------|
C|-------------------------------------------------------------------------|
G|--2-2-2-2-5-3-2----(FADE OUT)--------------------------------------------|
C|----------------5--2~~~~~~~~---------------------------------------------|


--------------
KEY:
~ = HOLD NOTE
( ) = HELP
--------------
===============================================================================