Atreyu - Demonology And Heartache Chords & Tabs

 

Demonology And Heartache Chords & Tabs

Atreyu Chords & Tabs

Version: 5 Type: Tab 0 ratings
1 star 2 stars 3 stars 4 stars 5 stars
comments

Demonology And Heartache Tab

   
Hey all, glad you could check this out. i havent seen any accurate tabs for this so i 
id post what i have, as far as i know its 100% accurate but i need to break it down into a 
sections o.O

Tuning: D A F C G D

This Section is all of what Dan Jacobs Does

D -----------------------------------------------------|
A 12-00-7-0-8-0-10-0-8-00-7h87-------------------------|(x8)
F -----------------------------------------------------|
C -----------------------------------------------------|
G -----------------------------------------------------|
D -----------------------------------------------------|
After the 8th time playing this then play this:
D -----------------------------------------------------|
A 10---8--7--8--7---------7-8-7------------------------|
F -------------------7--9------------------------------|
C -----------------------------------------------------|
G -----------------------------------------------------|
D -----------------------------------------------------|

Also For This Part Travis Miguel Comes in at the end with:
D ---8--7-7------7-------------------------------------|
A -----------10------10--10---7--8---------------------|
F -----------------------------------------------------|
C -----------------------------------------------------|
G -----------------------------------------------------|
D -----------------------------------------------------|

~~~~~~~~~~~~~~~~~~~~~~~~~~~~~~~~~~~~~~~~~~~~~~~~~~~~~~~~~~~~~~~~~~~~~~~~~~~~~
~~~~~~~~~~~~~~~~~~~~~~~~~~~~~~~~~~~~~~~~~~~~~~~~~~~~~~~~~~~~~~~~~~~~~~~~~~~~~
[ Tab from: http://www.guitartabs.cc/tabs/a/atreyu/demonology_and_heartache_tab_ver_5.html ]
After the solo type thing, which i am still working on, you play this:
D -----------------------------------------------------|
A------------------------------------------------------|
F -------4-4h54----------------------------------------|  ( play x6 times )
C --------------5--------------------------------------|
G ---5h7----------7------------------------------------|
D -----------------------------------------------------|
Then play:
D -----------------------------------------------------|
A -----------------------------------------------------|
F --7--5-5-4-------------------------------------------|
C -----------7-----------------------------------------|
G -----------------------------------------------------|
D -----------------------------------------------------|
    REPEAT THAT PART TWICE
~~~~~~~~~~~~~~~~~~~~~~~~~~~~~~~~~~~~~~~~~~~~~~~~~~~~~~~~~~~~~~~~~~~~~~~~~~~~~
D -----------------------------------------------------|
A -----------------------------------------------------|
F -----4---4---------5---4--4--------------------------|  ( Play x3 Times )
C ------------------------------5----------------------|
G --7--------7-----------------------------------------|
D -----------------------------------------------------|

Then play:
D -----------------------------------------------------|
A -----------------------------------------------------|
F --7---5--5--4----------------------------------------|
C ---------------7-------------------------------------|
G -----------------------------------------------------|
D -----------------------------------------------------|
    REPEAT THAT PART TWICE
~~~~~~~~~~~~~~~~~~~~~~~~~~~~~~~~~~~~~~~~~~~~~~~~~~~~~~~~~~~~~~~~~~~~~~~~~~~~~

Then Before Progressing On You Play The Intro Once:
D -----------------------------------------------------|
A 12--00-7-0-8-10-0-8-00-7h87--------------------------|
F -----------------------------------------------------|
C -----------------------------------------------------|
G -----------------------------------------------------|
D -----------------------------------------------------|

~~~~~~~~~~~~~~~~~~~~~~~~~~~~~~~~~~~~~~~~~~~~~~~~~~~~~~~~~~~~~~~~~~~~~~~~~~~~~
~~~~~~~~~~~~~~~~~~~~~~~~~~~~~~~~~~~~~~~~~~~~~~~~~~~~~~~~~~~~~~~~~~~~~~~~~~~~~
~~~~~~~~~~~~~~~~~~~~~~~~~~~~~~~~~~~~~~~~~~~~~~~~~~~~~~~~~~~~~~~~~~~~~~~~~~~~~

I know this isn't the entire song, it's only what Dan Jacobs plays, but I'll add all of 
Miguel's parts later, for now enjoy. If you have any questions or comments, email me at
angel_of_despair_2003@yahoo.com
This is my very first tab so take it easy, but like i said I'm pretty sure its all 
:-)
Comments