Atreyu - Demonology And Heartache Chords & Tabs

 

Demonology And Heartache Chords & Tabs

Atreyu Chords & Tabs

Version: 2 Type: Tab 0 ratings
1 star 2 stars 3 stars 4 stars 5 stars
comments

Demonology And Heartache Tab

----------------------------------------------------------------------------
			     Atreyu - Demonology and Heartache
----------------------------------------------------------------------------

Album:The Curse

Tabbed by: Jaime Díaz
Email: juanjaime_x41@hotmail.com

DADGBe
h=hammer-on   p=pull-off   <>=harmonic   b=bend note   x=mute   /=slide

     Repeat 8 times
|--------------------------------------------------------------------------|
|------10p0-(0)-5p0-6p0-8p0-6p0--5h6p5-3-----------------------------------|
|--------------------------------------------------------------------------|
|--------------------------------------------------------------------------|
|--------------------------------------------------------------------------|
|--------------------------------------------------------------------------|

then play this
|-------------------------------|
|--8/10-8--6-8-6--1-3-----------|
|--7/9--7--5-7-5--0-2-----------|
|-------------------------------|
|-------------------------------|
|-------------------------------|

verse X2
|--------------------------------------------------------------------------|
|-3~-3/5/6\5---------------------------------------------------------------|
|--------------------------------------------------------------------------|
|--------------0~---7-7-7-7-7-7-7-7-9-9-9-9-9-9-9-9------------------------|
|--------------0~---5-5-5-5-5-5-5-5-7-7-7-7-7-7-7-7------------------------|
|--------------0~---0-0-0-0-0-0-0-0-0-0-0-0-0-0-0-0------------------------|

verse x1
|--------------------------------------------------------------------------|
|--------------------------------------------------------------------------|
|-7-7-7-7-9-9-9-9---------------7-7-7-7-9-9-9-9-5-5-5-5-5-5-5-5------------|
|-x-x-x-x-x-x-x-x-10xxxxxxxxxxx-x-x-x-x-x-x-x-x-x-x-x-x-x-x-x-x------------|
|-5-5-5-5-7-7-7-7--8xxxxxxxxxxx-5-5-5-5-7-7-7-7-3-3-3-3-3-3-3-3------------|
|--------------------------------------------------------------------------|
[ Tab from: http://www.guitartabs.cc/tabs/a/atreyu/demonology_and_heartache_tab_ver_2.html ]
|--------------------------------------------------------------------------|
|--------------------------------------------------------------------------|
|-7-7-7-7-9-9-9-9-5-5-5-5-7-7-7-7------------------------------------------|
|-x-x-x-x-x-x-x-x-x-x-x-x-x-x-x-x--7-7-7-7-7-7-7-7-9-9-9-9-9-9-9-9---------|
|-5-5-5-5-7-7-7-7-3-3-3-3-5-5-5-5--5-5-5-5-5-5-5-5-7-7-7-7-7-7-7-7---------|
|----------------------------------0-0-0-0-0-0-0-0-0-0-0-0-0-0-0-0---------|

interlude
|--------------------------|
|--------------------------|
|-7~--7-7/9-10~-9/10\9-----|
|-x~--x-x-x-x~--x--x-x-----|
|-5~--5-5/7-8~--7/-8\7-----|
|--------------------------|

|-<12>-b12--------------------------(play this very fast)------------------|
|---------11-10-11(11h13-11-11p10-11h13-11-11p10)--------------------------|
|-----------------------------------------------(10h12-10-10p9-10h12-10p9)-|
|--------------------------------------------------------------------------|
|--------------------------------------------------------------------------|
|--------------------------------------------------------------------------|

|-/17-15-14-/18-17-15-(15h17p15-14h15p14-12-b12---15h17p15-14h15p14-12)----|
|----------------------------------------------b11-------------------------|
|--------------------------------------------------------------------------|
|--------------------------------------------------------------------------|
|--------------------------------------------------------------------------|
|--------------------------------------------------------------------------|

|---------------------------------------------------------------|
|---------------------------------------------------------------|
|---------------------------------------------------------------|
|---7p5h7p5-7p5h7p5-7p5h7p5-7p5h7p5-7p5h7p5-7p5h7p5-\10-8-7-5---|
|-x--------x-------x-------x-------x-------x--------------------|
|---------------------------------------------------------------|

|--------------------------------------------------------|
|--------------------------------------------------------|
|--------------------------------------------------------|
|--5-7-5-8-7-5--5-7-5-8-7-5--5-7-5-8-7-5-/10-8-7-5-------|
|--------------------------------------------------------|
|--------------------------------------------------------|

last chord
|--------|
|--------|
|--------|
|-7------|
|-5------|
|--------|

Have Fun.  :)
Comments