Atreyu - Deanne The Arsonist Chords & Tabs

 

Deanne The Arsonist Chords & Tabs

Atreyu Chords & Tabs

Version: 4 Type: Tab 0 ratings
1 star 2 stars 3 stars 4 stars 5 stars
comments

Deanne The Arsonist Tab

TEH TUNING IS STANDARD

intro (guitar1) (0:06)
|----------------------------|
|----------------------------|
|----------------------------| X 12
|----------------------------|w/reverb
|----------------------------|
|-0000(12)000(12)000(12)0000-|

(guitar2) (0:12)
|----------------------------|
|----------------------------|
|----------------------------|
|-3-0-6-1-3-0-6-1------------|
|-3-0-6-1-3-0-6-1------------|
|-3-0-6-1-3-0-6-1------------|


solo (guitar1) (0:25)
|-------------------------------------------------------------------------|
|-------------------------------------------------------------------------|
|--8/10-8-6-3-5-6-5--------3----------8/10-8-6-8-10-8-12/13-12-10-8-10-10-|X
|-------------------3--5-6---6-5-1-3--------------------------------------|2
|-------------------------------------------------------------------------|
|-------------------------------------------------------------------------|


(guitar1 and 2)(0:50)
|----------------------------------------------|
|----------------------------------------------|
|----------------------------------------------|
|-3x33x33x33x33x00x00x00x00x1x11x11x11x0--2--3-|
|-3x33x33x33x33x00x00x00x00x1x11x11x11x0--2--3-|
|-3x33x33x33x33x00x00x00x00x1x11x11x11x0--0--3-|

(solo X1)
(guitar1 and 2 riff)
[ Tab from: http://www.guitartabs.cc/tabs/a/atreyu/deanne_the_arsonist_tab_ver_4.html ]
breakdown (1:51)
|----------|----------------------------------------------------|
|----------|----------------------------------------------------|
|---3-5----|-------3-1---------------------3-1------------------| X2
|----------|---5-------5---5---6-5-3---5-------5---5---6-5-3v---|
|-6-----6b-|-3---3-------3---3-------3---3-------3---3----------|
|----------|----------------------------------------------------|
(2:19)
|-----------------------------------|
|--X4------X4------X4---------------|
|-----------------------------------|
|4-4-4-4-0-0-0-0-6-6-6-6-1--1-1-1---|
|4-4-4-4-0-0-0-0-6-6-6-6-1--1-1-1---|
|4-4-4-4-0-0-0-0-6-6-6-6-1--1-1-1---|

tap solo (turn up the volume) :) (2:46)
|--------------------------------------------------------------------------|
|--------------------------------------------------------------------------|
|-----------------------------14t4h6-14t4h6-14t4h6-14t4h6-14t6h8-14t6h8----|
|-14t6h8-14t6h8-14t6h8-14t6h8----------------------------------------------|
|--------------------------------------------------------------------------|
|--------------------------------------------------------------------------|
        X3 with reverb                      guitar 2 in background (2:53)
-------------------------------------------|--------|
-------------------------------------------|--------|
-14t6h8-14t6h8-14t6h8-14t6h8-14t6h8-14t6h8-|--------|
-------------------------------------------|-0-6-8--|
-------------------------------------------|-0-6-8--|
-------------------------------------------|-0-6-8--|

(Breakdown @ 3:12)

end

This tab was made by John Dallaire on August 11th 2004
needs a few minor corrections
Jed@efuct.com
Comments