Atreyu - Deanne The Arsonist Chords & Tabs

 

Deanne The Arsonist Chords & Tabs

Atreyu Chords & Tabs

Version: 2 Type: Tab 0 ratings
1 star 2 stars 3 stars 4 stars 5 stars
comments

Deanne The Arsonist Tab

BAND: Atreyu
SONG: Deanne the Arsonist

TABBED BY: Drew 
EMAiL:      funeral_in_carpathia13@yahoo.com

TUNNING: Drop D - Distorted

KEY:     *  Palm Mute
         ~  Tremolo Pick

This is like 100% except the solo might be off, but the right idea

INTRO
1|--------------------------------------------------------|
2|--------------------------------------------------------|
3|--0000-12000-12000-12000--------------------------------|
4|--------------------------------------------------------|
5|--------------------------------------------------------|
6|--------------------------------------------------------|
    ~~~~ ~~~~~ ~~~~~ ~~~~~

1|--------------------------------------------------------|
2|--------------------------------------------------------|
3|--------------------------------------------------------|
4|--5------8------3------3--------------------------------|
5|--5------6------1------3--------------------------------|
6|--3------6------1------1--------------------------------|


Chorus - 2x - G5 powerchord in backround
1|-----------------------|--------------------------------|
2|-----------------------|--------------------------------|
3|-----12-10-8-5-7-8-7---|--------------------------------|
4|---------------------5-|--5-7-8-9-11-8-9----------------|
5|-----------------------|--------------------------------|
6|-----------------------|--------------------------------|

1|--------------------------------------------------------|
2|------------------------11-10---------------------------|
3|--12-12-10-8-10-12-10---------12-10-12------------------|
4|--------------------------------------------------------|
5|--------------------------------------------------------|
6|--------------------------------------------------------|

Verse 1 - listen for rythem - 2x
1|--------------------------------------------------------
2|--------------------------------------------------------
3|--------------------------------------------------------
4|--5-5--0-5-5--0-5-5--0-5-5--0-8-8--0-8-8--0-8-8--0-8-8--
5|--5-5--0-5-5--0-5-5--0-5-5--0-6-6--0-6-6--0-6-6--0-6-6--
6|--3-3--0-3-3--0-3-3--0-3-3--0-6-6--0-6-6--0-6-6--0-6-6--

1---------------------------------------------------------|
2---------------------------------------------------------|
3---------------------------------------------------------|
4--0-3-3--0-3-3--0-3-3--0-3-3--0-77777777-88888888--------|
5--0-3-3--0-3-3--0-3-3--0-3-3--0-55555555-66666666--------|
6--0-1-1--0-1-1--0-1-1--0-1-1--0-55555555-66666666--------|


Chorus - 1x
1|-----------------------|--------------------------------|
2|-----------------------|--------------------------------|
3|-----12-10-8-5-7-8-7---|--------------------------------|
4|---------------------5-|--5-7-8-9-11-8-9----------------|
5|-----------------------|--------------------------------|
6|-----------------------|--------------------------------|
[ Tab from: http://www.guitartabs.cc/tabs/a/atreyu/deanne_the_arsonist_tab_ver_2.html ]
1|--------------------------------------------------------|
2|------------------------11-10---------------------------|
3|--12-12-10-8-10-12-10---------12-10-12------------------|
4|--------------------------------------------------------|
5|--------------------------------------------------------|
6|--------------------------------------------------------|


Verse 1 - listen to some for rythem - 2x
1|--------------------------------------------------------
2|--------------------------------------------------------
3|--------------------------------------------------------
4|--5-5--0-5-5--0-5-5--0-5-5--0-8-8--0-8-8--0-8-8--0-8-8--
5|--5-5--0-5-5--0-5-5--0-5-5--0-6-6--0-6-6--0-6-6--0-6-6--
6|--3-3--0-3-3--0-3-3--0-3-3--0-6-6--0-6-6--0-6-6--0-6-6--

1|--------------------------------------------------------|
2|--------------------------------------------------------|
3|--------------------------------------------------------|
4|--0-3-3--0-3-3--0-3-3--0-3-3--0-77777777-88888888-------|
5|--0-3-3--0-3-3--0-3-3--0-3-3--0-55555555-66666666-------|
6|--0-1-1--0-1-1--0-1-1--0-1-1--0-55555555-66666666-------|

Second Time
1|--------------------------------------------------------|
2|--------------------------------------------------------|
3|--------------------------------------------------------|
4|--0-3-3--0-3-3--0-3-3--0-3-3--0-77777777-88888888-------|
5|--0-3-3--0-3-3--0-3-3--0-3-3--0-55555555-66666666-------|
6|--0-1-1--0-1-1--0-1-1--0-1-1--0-55555555-66666666-------|
                                   *** ***  *** ***

Verse 2 - 4x
1|--------------|----------------|------------------------|
2|--------------|----------------|------------------------|
3|-----5--7-----|----------------|------------------------|
4|--7--7--8--7--|----7---10-8-7--|----7---8-7-------------|
5|--8--------8--|--5---5---------|--5---5-----8-----------|
6|--------------|----------------|------------------------|


Break - 2x
1|--------------------------------------------------------|
2|--------------------------------------------------------|
3|--------------------------------------------------------|
4|--6666666666666666-9999999999999999-3333333333333333--6-|
5|--6666666666666666-7777777777777777-3333333333333333--4-|
6|--4444444444444444-7777777777777777-1111111111111111--4-|


Solo - Tapping - each bar 
1|-----------|-----------|--------------||----------------|
2|----456----|----789----|----101112----||----131415------|
3|-----------|-----------|--------------||----------------|
4|-----------|-----------|--------------||----------------|
5|-----------|-----------|--------------||----------------|
6|-----------|-----------|--------------||----------------|
      4x          4x           8x           4th time 8x

Verse 2 - 4x
1|--------------|----------------|------------------------|
2|--------------|----------------|------------------------|
3|-----5--7-----|----------------|------------------------|
4|--7--7--8--7--|----7---10-8-7--|----7---8-7-------------|
5|--8--------8--|--5---5---------|--5---5-----8-----------|
6|--------------|----------------|------------------------|


That should be it, comments, insults, praise appreciated
Atreyu is a great band that deserves much credit
Comments