Atreyu - Deanne The Arsonist Chords & Tabs

 

Deanne The Arsonist Chords & Tabs

Atreyu Chords & Tabs

Version: 1 Type: Bass Tab 0 ratings
1 star 2 stars 3 stars 4 stars 5 stars
comments

Deanne The Arsonist Bass Tab

   
Tuning-C,G,C,F 

Intro x1 (Let all ring)
|----------------|----------------|----------------|----------------||
|----------------|----------------|----------------|----------------||
|----------------|----------------|----------------|----------------||
|-5--------------|-1--------------|-8--------------|-3--------------||

Intro2 x4
|-------------------------------------------------------------------||
|-------------------------------------------------------------------||
|-------------------------------------------------------------------||
|-5-5-5-5-5-5-5-5-1-1-1-1-1-1-1-1-8-8-8-8-8-8-8-8-3-3-3-3-3-3-3-3---||

Verse x1
|-------------------------------------------------------------------||
|-------------------------------------------------------------------||
|-------------------------------------------------------------------||
|-5-5--5-5-5--5-5-5--5-5-5--5-1-1--1-1-1--1-1-1--1-1-1--1-3-3--3-3-3||

Cont.
|----------------||
|----------------||
|----------------||
|-3-3-3--3-3-3---||

Cont.
|---------------------------------||
|---------------------------------||
|---------------------------------||
|-0-0-0-0-0-0-0-0-1-1-1-1-1-1-1-1-||

Chorus x1
|-------------------------------------------------------------------||
|-------------------------------------------------------------------||
|-------------------------------------------------------------------||
|-5-5-5-5-5-5-5-5-1-1-1-1-1-1-1-1-8-8-8-8-8-8-8-8-3-3-3-3-3-3-3-3---||
[ Tab from: http://www.guitartabs.cc/tabs/a/atreyu/deanne_the_arsonist_btab.html ]
Verse2 x1
|-------------------------------------------------------------------||
|-------------------------------------------------------------------||
|-------------------------------------------------------------------||
|-5-5--5-5-5--5-5-5--5-5-5--5-1-1--1-1-1--1-1-1--1-1-1--1-3-3--3-3-3||

Cont.
|----------------||
|----------------||
|----------------||
|-3-3-3--3-3-3---||

Cont.  First TIme ONLY                          Last Time ONLY
|---------------------------------||  |-----------------------------||
|---------------------------------||  |-----------------------------||
|---------------------------------||  |-----------------------------||
|-0-0-0-0-0-0-0-0-1-1-1-1-1-1-1-1-||  |-0-000-0-000-1-111-1-111-----||

Breakdown x1
|-------------------------------------------------------------------||
|-------------------------------------------------------------------||
|-------------------------------------------------------------------||
|-00-0000--00-0-00--00-0000--00-0-00--0000--------------------------||

Bridge x2
|-------------------------------------------------------------------||
|-------------------------------------------------------------------||
|-------------------------------------------------------------------||
|-6-6-6-6-6-6-6-6-1-1-1-1-1-1-1-1-4-4-4-4-4-4-4-4-0~(let ring)------||

During Guitar Solo x2 
|----------------||
|----------------||
|----------------||
|-1---3---6------||

Outro Play Till out
|-------------------------------------------------------------------||
|-------------------------------------------------------------------||
|-------------------------------------------------------------------||
|-00-0000--00-0-00--00-0000--00-0-00--0000--------------------------||
Comments