Atreyu - Creature Chords & Tabs

 

Creature Chords & Tabs

Atreyu Chords & Tabs

Version: 4 Type: Tab

Creature Tab

atreyu 
creature
a death grip on yesterday

tuning - drop C

palm mute  - .
staccato   - s 
vibrato    - ~
slide down - \
muted      - x

intro-verse
|------------------------------------------------|
|------------------------------------------------|
|------------------------------------------------|
|------------------------------------------------|
|5-------5-7-8-------5-7-8-------5-7-8-7-8-7-5-7-|
|--0-0-0-------0-0-0-------0-0-0-----------------|
   . . .       . . .       . . .  

|----------------------------------|
|----------------------------------|
|----------------------------------|
|--777777s---6666---555555s---4444-|  X4 or 5
|7-777777s-6-6666-5-555555s-4-4444-|
|--777777s---6666---555555s---4444-|
   ......    ....   ......    ....

interlude
|--------------|
|-------777777-|
|-------555555-|
|333333--------|
|333333--------|
|333333--------|

chourus 
|----------------------------------------------------|
|----------------------------------------------------|
|101010101010-121212121212-141414141414-121212121212-|
|x-x-x-x-x-x--x-x-x-x-x-x--x-x-x-x-x-x--x-x-x-x-x-x--|
|8-8-8-8-8-8--101010101010-121212121212-101010101010-|
|----------------------------------------------------|

2nd Verse
|----------------------------------------------------------------------|
|----------------------------------------------------------------------|
|----------------------------------------------------------------------|
|----------------------------------------------------------------------|
|5-------5-------8-------8-------7-------7-------3-------3-------3-4-5-|
|--00000---00000---00000---00000---00000---00000---00000---00000-------|
   .....   .....   .....   .....   .....   .....   .....   .....
[ Tab from: http://www.guitartabs.cc/tabs/a/atreyu/creature_tab_ver_4.html ]
|--------------------------------------------------------------------|
|--------------------------------------------------------------------|
|--------------------------------------------------------------------|
|--------------------------------------------------------------------|
|------5-------10-------10-------9-------9-------3-------3-------3-4-|
|00000---00000----00000----00000---00000---00000---00000---00000-----|
 .....   .....    .....    .....   .....   .....   .....   .....

|---------------------------------|
|---------------------------------|
|---------------------------------|
|---------------------------------|
|5~-5-7-8~-5-7-8~-5-7-8-7-8-7-5-7-|
|---------------------------------|

|----------------------------------------------|
|----------------------------------------------|
|999999-121212121212-141414141414-161616161616-|
|xxxxxx--x-x-x-x-x-x-x-x-x-x-x-x--x-x-x-x-x-x--|
|777777-101010101010-121212121212-141414141414-|
|----------------------------------------------|

bridge - 1st guitar 
|-------------------|
|-------------------|
|-------------------|
|0000000s-----00-8\-|
|0000000s-----00-8\-|
|0000000s-----00-8\-|
 .......      ..

2nd guitar
|-------|
|-------|
|-------|
|000-8\-|
|000-8\-|
|000-8\-|
 ...
|--------------------------------------------------|
|--------------------------------------------------|
|--------------------------------------------------|
|000000s-000000s-0000-777777-6666666-555555-444444-| x2
|000000s-000000s-0000-777777-6666666-555555-444444-|
|000000s-000000s-0000-777777-6666666-555555-444444-|
 ......  ......  ....

|---------------------------------------------|
|---------------------------------------------|
|---------------------------------------------|
|000000s-0000s-00-777777-666666-555555-444444-|
|000000s-0000s-00-777777-666666-555555-444444-|
|000000s-0000s-00-777777-666666-555555-444444-|
 ......  ....  ..  

outro
|-----------------------------|
|-----------------------------|
|-----------------------------|
|--------------------------0~-|
|5-------5-------5-7-8-5-7-0~-|
|--00000---00000-----------0~-|
   .....   .....           .