Atreyu - Corseting Chords & Tabs

 

Corseting Chords & Tabs

Atreyu Chords & Tabs

Version: 3 Type: Tab 0 ratings
1 star 2 stars 3 stars 4 stars 5 stars
comments

Corseting Tab

   
Artist: Atreyu
Song: Corseting
Album: The Curse 
Tabber: theguitarmanX 
Tuning: Drop C (CGCFAD)

Guitar 1: Travis Miguel
Guitar 2: Dan Jacobs

Intro:
D|--------------|
A|--------------|
F|--------------|
C|-0-3-5-7-8-10-|
G|-0-3-5-7-8-10-|
C|-0-3-5-7-8-10-|

Verse 1a:
D|--------------------------------------|----------------------------------|
A|--------------------------------------|----------------------------------|
F|o------------------------------------o|----------------------------------|
C|o------------------------------------o|-1-1-1-1-1-1-1-1-1010101010101010-|
G|--------0h3h5---------0h3h5---000000--|-1-1-1-1-1-1-1-1-8-8-8-8-8-8-8-8--|
C|--0h3h5-------0-0h3h5-------0-000000--|-1-1-1-1-1-1-1-1-8-8-8-8-8-8-8-8--|
PM                              ......

Verse 1 Variation (play second time aroud)
D|--------------------------------------------------------------------|
A|--------------------------------------------------------------------|
F|--------------------------------------------------------------------|
C|--------------------------------------------------------------------|
G|-------0h3h5---------0h3h5--000000--------0h3h5-------0h3h5---0-0-0-|
C|-0h3h5-------0-0h3h5------0-000000--0h3h5-------0h3h5-------0-0-0-0-|
PM                            ......                            . . .

Verse 1b:
Guitar 1
D|-------------------------------------------------------------------------|
A|-------------------------------------------------------------------------|
F|-------------------------------------------------------------------------|
C|-----8-------8---------8-------8---------8-------8---------1010-----1010-|
G|-000-8-0-000-8-0---000-8-0-000-8-0---555-8-5-555-8-5---888-8-8--888-8-8--|
C|-000-8-0-000-8-0---000-8-0-000-8-0---555-8-5-555-8-5---888-8-8--888-8-8--|
PM ...     ...       ...     ...       ...     ...       ...      ...
[ Tab from: http://www.guitartabs.cc/tabs/a/atreyu/corseting_tab_ver_3.html ]
Guitar 2 Fill Over Chords
D|---------------------------------------------------------------------|
A|---------------------------------------------------------------------|
F|---------------------------------------------------------------------|
C|-3p2-0-2h3-0-3h5-0-3p2-0-2h3-0-3h5-0-3p2-0-2h3-0-3h5-0-2-5p3p2-3p2p0-|
G|---------------------------------------------------------------------|
C|---------------------------------------------------------------------|

Chorus
Guitar 1
D|--------------------------------|
A|--------------------------------|
F|--------------------------------|
C|-5--5--5-3-5-8~------5~------8~-|
G|-5--5--5-3-5-8~------5~------8~-|
C|-5--5--5-3-5-8~------5~------8~-|

Guitar 2
D|--------------------------------------------------|
A|--------------------------------------------------|
F|---------------14-12-5-7~--10-9--10-12-10-9--9--9-|
C|-5--5--5-3-5-8--x--x-x-x----x-x---x--x--x-x--x--x-|
G|-5--5--5-3-5-8-12-10-3-5~---8-7---8-10--8-7--7--7-|
C|-5--5--5-3-5-8------------------------------------|

Verse 1a
Verse 1a Variation
Verse 1b

Harmony Part
Guitar 1
D|---------------------------------------------------------------------|
A|---------------------------------------------------------------------|
F|---------------------------------------------------------------------|
C|-3p2-0-2h3-0-3h5-0-3p2-0-2h3-0-3h5-0-3p2-0-2h3-0-3h5-0-2-5p3p2-3p2p0-|
G|---------------------------------------------------------------------|
C|---------------------------------------------------------------------|

Guitar 2
D|---------------------------------------------------------------------|
A|---------------------------------------------------------------------|
F|-3p2-0-2h3-0-3h5-0-3p2-0-2h3-0-3h5-0-3p2-0-2h3-0-3h5-0-2-5p3p2-3p2p0-|
C|---------------------------------------------------------------------|
G|---------------------------------------------------------------------|
C|---------------------------------------------------------------------|

Chorus

Outro (repeat as many times needed)
D|-----|
A|-----|
F|-----|
C|-----|
G|-000-|
C|-000-|
PM ...

End on
D|-----------------|
A|-----------------|
F|-----------------|
C|-----------------|
G|-------0h3h5-000-|
C|-0h3h5-------000-|
PM             ...

This is 100% correct. This song is the best song of the CD. Enjoy!
ATREYU ROCKS. \m/
Comments