Atreyu - Corseting Chords & Tabs

 

Corseting Chords & Tabs

Atreyu Chords & Tabs

Version: 2 Type: Tab 0 ratings
1 star 2 stars 3 stars 4 stars 5 stars
comments

Corseting Tab

   
ok, this is my first tab, so i don't know if its 100% correct,but it should be close.




B=bend
H=hammer
P=pulloff
.=palm mute
/=slide

Riff-A
Guitar 1 and 2
d|-----------------| 
A|-----------------| 
F|-----------------| 
C|--3-5-6-8-10-----| 
G|--3-5-6-8-10-----| 
C|--3-5-6-8-10-----|


Riff-B
Guitar 1
d|------------------------------| 
A|------------------------------| 
F|------------------------------| X 2
C|------------------------------| 
G|--------3h5-------3h5---------| 
C|--000-5-------000------0000---|
    ...         ...      ....

Fill 1
d|-----------------------------------------------------------| 
A|---15b-15b--13~---------------13---------------------------| 
F|----------------15p14~--14h15-----15b--14-14h15p14---------| 
C|-----------------------------------------------------15~---| 
G|-----------------------------------------------------------| 
C|-----------------------------------------------------------|
(note there are million ways to make the same sound as this, this is just one way)

Fill 2
d|--------------------------------------------------------------| 
A|-15-15-16-18-16-18-20b--18b-----------------------------------| 
F|------------------------------19-20-22-20-17h19b-p17----------| 
C|------------------------------------------------------20~-----| 
G|--------------------------------------------------------------| 
C|--------------------------------------------------------------|


Guitar 2
d|------------------------------| 
A|------------------------------| 
F|------------------------------| X 2
C|------------------------------| 
G|--------3h5-------3h5---------| 
C|--000-5-------000------0000---|
    ...         ...      ....


Guitar 2
d|-------------------------------------------------| 
A|-------------------------------------------------| 
F|-------------------------------------------------| 
C|--10-10-10-10-10-10-10-10----5-5-5-5-5-5-5-5-----| 
G|--8--8--8--8--8--8--8--8-----5-5-5-5-5-5-5-5-----| 
C|--8--8--8--8--8--8--8--8-----5-5-5-5-5-5-5-5-----|
              

Riff-C
Both Guitars
d|--------------------------------------------| 
A|--------------------------------------------| 
F|--------------------------------------------| 
C|-000-5-0---000-5-0----000-5-0----000-5-0----| 
G|-000-5-0---000-5-0----000-5-0----000-5-0----| 
C|-000-5-0---000-5-0----000-5-0----000-5-0----|
   ...   .   ...   .    ...   .    ...   .

d|--------------------------------------------| 
A|--------------------------------------------| 
F|--------------------------------------------| 
C|-000-8-0---000-8-0---000-10-0---000-10-0----| 
G|-000-8-0---000-8-0---000-8--0---000-8--0----| 
C|-000-8-0---000-8-0---000-8--0---000-8--0----|
   ...   .   ...   .   ...    .   ...    .

[ Tab from: http://www.guitartabs.cc/tabs/a/atreyu/corseting_tab_ver_2.html ]
Riff-D
Guitar 1
d|-----------------------------------| 
A|-----------------------------------| 
F|-----------------------------------| 
C|-0-3p2-0-3p2-0-2-0-2h3-0-2h3-5-----|
G|-----------------------------------| 
C|-----------------------------------|

d|-----------------------------------------| 
A|-----------------------------------------| 
F|-----------------------------------------| 
C|-0-3p2-0-3p2-0-2-0-2h3-0-2h3-5p3p2p0-----|
G|-----------------------------------------| 
C|-----------------------------------------|


Guitar 2
d|--------------------------------------------| 
A|--------------------------------------------| 
F|--------------------------------------------| 
C|-000-5-0---000-5-0----000-5-0----000-5-0----| 
G|-000-5-0---000-5-0----000-5-0----000-5-0----| 
C|-000-5-0---000-5-0----000-5-0----000-5-0----|
   ...   .   ...   .    ...   .    ...   .

d|--------------------------------------------| 
A|--------------------------------------------| 
F|--------------------------------------------| 
C|-000-8-0---000-8-0---000-10-0---000-10-0----| 
G|-000-8-0---000-8-0---000-8--0---000-8--0----| 
C|-000-8-0---000-8-0---000-8--0---000-8--0----|
   ...   .   ...   .   ...    .   ...    .


Riff-E
Guitar 1
d|---------------------------------------------------------| 
A|---------------------------------------------------------| 
F|---------------------14--12--5--7~--5-7--12--10-9--10----| 
C|--5-5-5-5-5-5-5-5----------------------------------------| 
G|--5-5-5-5-5-5-5-5----12--10--3--5~--3-5--10--8--7--8-----| 
C|--5-5-5-5-5-5-5-5----------------------------------------|

Guitar 2
d|------------------------------------------------| 
A|------------------------------------------------| 
F|------------------------------------------------| 
C|--5-5-5-5-5-5-5-5---10-10-10-10-10-10-10-10-----| 
G|--5-5-5-5-5-5-5-5---8--8--8--8--8--8--8--8------| 
C|--5-5-5-5-5-5-5-5---8--8--8--8--8--8--8--8------|


Repeat Riff B
Repeat Riff C


Riff-F
Guitar 1
d|-------------------| 
A|-------------------| 
F|----4-4h5-4h5h7----| X 3
C|-------------------| 
G|-------------------| 
C|-------------------|

d|---------------------| 
A|---------------------| 
F|----4h5h7-5p4h5------|
C|---------------------| 
G|---------------------| 
C|---------------------|

Guitar 2
d|---------------------| 
A|---------------------| 
F|---------------------| X 3
C|--0h2-0h2h3-0h2h3h5--| 
G|---------------------| 
C|---------------------|

d|---------------------| 
A|---------------------| 
F|---------------------|
C|--0h2h3h5-3p2h3------| 
G|---------------------| 
C|---------------------|

Guitar 3
d|------------------------| 
A|------------------------| 
F|------------------------| 
C|--0------5-----8--------| 
G|--0-x16--5-x8--8-x8-----| 
C|--0------5-----8--------|

Repeat riff E


Riff-G
Guitar 1 and 2
d|--------| 
A|--------| 
F|--------| 
C|--000---| x30
G|--000---| 
C|--000---|
    ...

then
d|--------------------| 
A|--------------------| 
F|--------------------| 
C|--------------------| 
G|--------3h5---------| 
C|--000-5-----0000----|
    ...       ....
Comments