Atreyu - Bleeding Mascara Chords & Tabs

 

Bleeding Mascara Chords & Tabs

Atreyu Chords & Tabs

Version: 6 Type: Tab 0 ratings
1 star 2 stars 3 stars 4 stars 5 stars
comments

Bleeding Mascara Tab

   
                                BLEEDING MASCARA
                              As recorded by Atreyu
                         (From the 2004 Album THE CURSE)

Words and Music by Atreyu
Arranged by Atreyu
Transcribed by Gabriel Ortiz

 Intro
  Fast Rock Q.=169
  D5        D5
 3/8       12/8
  Gtr I
             PM----------------------------------
|-------||--------------------------------------|
|-------||o-------------------------------------|
|-------||--------------------------------------|
|-12\---||--------------------------------------|
|-12\---||o--0--0--0--0--0--0--0--0--0--0--0--0-|
|-12\---||---0--0--0--0--0--0--0--0--0--0--0--0-|
|
| Gtr II
|-------||-----------17----------------17-------|
|-------||o-------18----18----------18----18----|
|-------||-----19----------19----19----------19-|
|-12\---||--19----------------19----------------|
|-12\---||o-------------------------------------|
|-12\---||--------------------------------------|


                    F5       Ab5
 ----------------------------------|
|-------------------------------------|
|-------------------------------------|
|-------------------------------------|
|-------------------------------------|
|--0--0--0--0--0--0--3--3--3--6--6--6-|
|--0--0--0--0--0--0--3--3--3--6--6--6-|
|
|----------17-------18-17-15-17-15----|
|-------18----18-------------------18-|
|----19----------19-------------------|
|-19----------------------------------|
|-------------------------------------|
|-------------------------------------|


  1.
  G5                                    Bb5
   PM----------------------------------------------------------------|
|-------------------------------------|---------------------------------||
|-------------------------------------|--------------------------------o||
|-------------------------------------|---------------------------------||
|-------------------------------------|---------------------------------||
|--5--5--5--5--5--5--5--5--5--5--5--5-|--8----8-8-8--8--8--8-8-8-8-8-8-o||
|--5--5--5--5--5--5--5--5--5--5--5--5-|--8----8-8-8--8--8--8-8-8-8-8-8--||
|
|----------17----------------17-------|-17b18-------17-15-17------------||
|-------18----18----------18----18----|--------------------------------o||
|----19----------19----19----------19-|---------------------------------||
|-19----------------19----------------|---------------------------------||
|-------------------------------------|--------------------------------o||
|-------------------------------------|---------------------------------||


  2.
  G5                                    Bb5
   PM------------------------------------------------------------------|
|-------------------------------------|----------------------------------||
|-------------------------------------|----------------------------------||
|-------------------------------------|----------------------------------||
|-------------------------------------|----------------------------------||
|--5--5--5--5--5--5--5--5--5--5--5--5-|-8-8-8--8--8--8---8-----8-8-8-8-8-||
|--5--5--5--5--5--5--5--5--5--5--5--5-|-8-8-8--8--8--8---8-----8-8-8-8-8-||
|
|----------17----------------17-------|-------------15-(15)b17-----------||
|-------18----18----------18----18----|----------18----------------------||
|----19----------19----19----------19-|-------18-------------------------||
|-19----------------19----------------|----------------------------------||
|-------------------------------------|----------------------------------||
|-------------------------------------|----------------------------------||


 Pre-Verse
  D5                                                       F5       Ab5
|-------------------------------------|--------------------------------------|
|-------------------------------------|--------------------------------------|
|-------------------------------------|--------------------------------------|
|--0----------------------------------|-(0)-----------------3--------6-------|
|--0----------------------------------|-(0)-----------------3--------6-------|
|--0----------------------------------|-(0)-----------------3--------6-------|
|
|----------17----------------17-------|-----------17-------18-17-15-17-15----|
|-------18----18----------18----18----|--------18----18-------------------18-|
|----19----------19----19----------19-|-----19----------19-------------------|
|-19----------------19----------------|-19-----------------------------------|
|-------------------------------------|--------------------------------------|
|-------------------------------------|--------------------------------------|


  G5                                    Bbsus2
|-------------------------------------|----------------------|
|-------------------------------------|----------------------|
|-------------------------------------|----------------------|
|--5----------------------------------|-10-------------------|
|--5----------------------------------|--8-------------------|
|--5----------------------------------|--8-------------------|
|
|----------17----------------17-------|-17b18----17-15-17----|
|-------18----18----------18----18----|----------------------|
|----19----------19----19----------19-|----------------------|
|-19----------------19----------------|----------------------|
|-------------------------------------|----------------------|
|-------------------------------------|----------------------|


  D5                                                       F5       Ab5
|-------------------------------------|--------------------------------------|
|-------------------------------------|--------------------------------------|
|-------------------------------------|--------------------------------------|
|--0----------------------------------|-(0)-----------------3--------6-------|
|--0----------------------------------|-(0)-----------------3--------6-------|
|--0----------------------------------|-(0)-----------------3--------6-------|
|
|----------17----------------17-------|-----------17----------------17-------|
|-------18----18----------18----18----|--------18----18----------18----18----|
|----19----------19----19----------19-|-----19----------19----19----------19-|
|-19----------------19----------------|-19-----------------19----------------|
|-------------------------------------|--------------------------------------|
|-------------------------------------|--------------------------------------|


  G5                                                              F5
|-------------------------------------|-----------------------------------||
|-------------------------------------|-----------------------------------||
|-------------------------------------|-----------------------------------||
|--5----------------------------------|--------------------5-------3------||
|--5----------------------------------|--------------------5-------3------||
|--5----------------------------------|--------------------5-------3------||
|
|-18-17-15-17-15----15----------------|-----------------------------------||
|----------------18----18-17----15-17-|-18-17-15-17-15--------------------||
|----------------------------18-------|----------------17-17b19---17b19---||
|-------------------------------------|-----------------------------------||
|-------------------------------------|-----------------------------------||
|-------------------------------------|-----------------------------------||


   Verse
    Faster Q.=174
    $
    D5    N.C.        D5      N.C.        D5    Bb5
    Gtrs I, II
    PM--|             PM--|               PM--|
||--------------------------|-----------------------|
||o-------------------------|-----------------------|
||--------------------------|-----------------------|
||--------------------------|-------------------8---|
||o-0-0-0-------------0-0-0-|-------------0-0-0-8---|
||--0-0-0-8p5p0-5p3p0-0-0-0-|-8p5p0-5p3p0-0-0-0-8---|


  D5    N.C.        D5      N.C.        D5    Eb5
  PM--|             PM--|               PM--|
|-------------------------|-----------------------|
|-------------------------|-----------------------|
|-------------------------|-----------------------|
|-------------------------|-------------------1---|
|-0-0-0-------------0-0-0-|-------------0-0-0-1---|
|-0-0-0-8p5p0-5p3p0-0-0-0-|-8p5p0-5p3p0-0-0-0-1---|


  D5   N.C.       D5     N.C.          D5
  Gtr I
  PM-|            PM-|                 PM--------|
|----------------------|---------------------------|
|----------------------|---------------------------|
|------7--8-(8)--------|--7---8--(8)---------------|
|------x--x------------|--x---x--------------------|
|-0--0-5--6-(6)---0--0-|--5---6--(6)---0-0-0-0-0-0-|
|-0--0------------0--0-|---------------0-0-0-0-0-0-|
|
| Gtr II
| PM-|            PM-|                 PM--------|
|----------------------|---------------------------|
|----------------------|---------------------------|
|------7--8-(8)--------|-10--12-(12)---------------|
|------x--x------------|--x---x--------------------|
|-0--0-5--6-(6)---0--0-|--8--10-(10)---0-0-0-0-0-0-|
|-0--0------------0--0-|---------------0-0-0-0-0-0-|


                                                       To Coda
  Db5                                   Eb5
   PM---------------------------------------------------------|
|-------------------------------------|--------------------------||
|-------------------------------------|-------------------------o||
|-------------------------------------|--------------------------||
|-------------------------------------|--------------------------||
|-11-11-11-11-11-11-11-11-11-11-11-11-|-8-8-8-8-8-8-8-8-8-8-8-8-o||
|-11-11-11-11-11-11-11-11-11-11-11-11-|-8-8-8-8-8-8-8-8-8-8-8-8--||
|
|-------------------------------------|--------------------------||
|-------------------------------------|-------------------------o||
|-10-10-10-10-10-10-10-10-10-10-10-10-|-7-7-7-7-7-7-7-7-7-7-7-7--||
|--x--x--x--x--x--x--x--x--x--x--x--x-|-x-x-x-x-x-x-x-x-x-x-x-x--||
|--8--8--8--8--8--8--8--8--8--8--8--8-|-5-5-5-5-5-5-5-5-5-5-5-5-o||
|-------------------------------------|--------------------------||


  C5                                    A5
|-------------------------------------|-------------------------||
|-------------------------------------|-------------------------||
|-------------------------------------|-------------------------||
|-10-10-10-10-10-10-10-10-10-10-10-10-|-7-7-7-7-7-7-7-7-7-7-7-7-||
|-10-10-10-10-10-10-10-10-10-10-10-10-|-7-7-7-7-7-7-7-7-7-7-7-7-||
|-10-10-10-10-10-10-10-10-10-10-10-10-|-7-7-7-7-7-7-7-7-7-7-7-7-||
|
|-------------------------------------|-------------------------||
|-------------------------------------|-------------------------||
|-10-10-10-10-10-10-10-10-10-10-10-10-|-7-7-7-7-7-7-7-7-7-7-7-7-||
|--x--x--x--x--x--x--x--x--x--x--x--x-|-x-x-x-x-x-x-x-x-x-x-x-x-||
|--8--8--8--8--8--8--8--8--8--8--8--8-|-5-5-5-5-5-5-5-5-5-5-5-5-||
|-------------------------------------|-------------------------||


 Chorus
  $$
  G5                        Bb5
|-------------------------|-------------------------|
|-------------------------|-------------------------|
|-------------------------|-------------------------|
|-5--5-(5)--5-5--5-(5)--5-|-8--8-(8)--8-8--8-(8)--8-|
|-5--5-(5)--5-5--5-(5)--5-|-8--8-(8)--8-8--8-(8)--8-|
|-5--5-(5)--5-5--5-(5)--5-|-8--8-(8)--8-8--8-(8)--8-|
|
|-------------------------|-------------------------|
|-------------------------|-------------------------|
|-3-----------------------|-5-----------------------|
|-x-----------------------|-x-----------------------|
|-1-----------------------|-3-----------------------|
|-------------------------|-------------------------|


  D5                         F5
|--------------------------|-------------------------|
|--------------------------|-------------------------|
|--------------------------|-------------------------|
|-0--0-(0)--0--0--0-(0)--0-|-3--3-(3)--3-3--3-(3)--3-|
|-0--0-(0)--0--0--0-(0)--0-|-3--3-(3)--3-3--3-(3)--3-|
|-0--0-(0)--0--0--0-(0)--0-|-3--3-(3)--3-3--3-(3)--3-|
|
|--------------------------|-------------------------|
|--------------------------|-------------------------|
|-------------10-----------|-9-----------5-----------|
|-0------------x-----------|-x-----------x-----------|
|-0------------8-----------|-7-----------3-----------|
|-0------------------------|-------------------------|


  G5                        Bb5
|-------------------------|-------------------------|
|-------------------------|-------------------------|
|-------------------------|-------------------------|
|-5--5-(5)--5-5--5-(5)--5-|-8--8-(8)--8-8--8-(8)--8-|
|-5--5-(5)--5-5--5-(5)--5-|-8--8-(8)--8-8--8-(8)--8-|
|-5--5-(5)--5-5--5-(5)--5-|-8--8-(8)--8-8--8-(8)--8-|
|
|-------------------------|-------------------------|
|-------------------------|-------------------------|
|-3-----------------------|-7-----------------------|
|-x-----------------------|-x-----------------------|
|-1-----------------------|-5-----------------------|
|-------------------------|-------------------------|

[ Tab from: http://www.guitartabs.cc/tabs/a/atreyu/bleeding_mascara_tab_ver_6.html ]
  D5                         F5
|--------------------------|--------------------------|
|--------------------------|--------------------------|
|--------------------------|--------------------------|
|-0--0-(0)--0--0--0-(0)--0-|-3--3-(3)--3--3--3-(3)--3-|
|-0--0-(0)--0--0--0-(0)--0-|-3--3-(3)--3--3--3-(3)--3-|
|-0--0-(0)--0--0--0-(0)--0-|-3--3-(3)--3--3--3-(3)--3-|
|
|--------------------------|--------------------------|
|--------------------------|--------------------------|
|-------------10-----------|-9-----------14-----------|
|-0------------x-----------|-x------------x-----------|
|-0------------8-----------|-7-----------12-----------|
|-0------------------------|--------------------------|


  G5                         Bb5
|--------------------------|--------------------------|
|--------------------------|--------------------------|
|--------------------------|--------------------------|
|--5--5-(5)--5-5--5-(5)--5-|--8--8-(8)--8-8--8-(8)--8-|
|--5--5-(5)--5-5--5-(5)--5-|--8--8-(8)--8-8--8-(8)--8-|
|--5--5-(5)--5-5--5-(5)--5-|--8--8-(8)--8-8--8-(8)--8-|
|
|--------------------------|--------------------------|
|--------------------------|--------------------------|
|-12-----------------------|-10-----------------------|
|--x-----------------------|--x-----------------------|
|-10-----------------------|--8-----------------------|
|--------------------------|--------------------------|


  D5                         F5
|--------------------------|-------------------------|
|--------------------------|-------------------------|
|--------------------------|-------------------------|
|-0--0-(0)--0--0--0-(0)--0-|-3--3-(3)--3-3--3-(3)--3-|
|-0--0-(0)--0--0--0-(0)--0-|-3--3-(3)--3-3--3-(3)--3-|
|-0--0-(0)--0--0--0-(0)--0-|-3--3-(3)--3-3--3-(3)--3-|
|
|--------------------------|-------------------------|
|--------------------------|-------------------------|
|-------------10-----------|-9-----------5-----------|
|-0------------x-----------|-x-----------x-----------|
|-0------------8-----------|-7-----------3-----------|
|-0------------------------|-------------------------|


                                      D.S. al Coda
                                      D.S. al Coda
  G5                        Bb5
|-------------------------|-------------------------||
|-------------------------|-------------------------||
|-------------------------|-------------------------||
|-5--5-(5)--5-5--5-(5)--5-|-8-8-8-8-8-8-8-8-8-8-8-8-||
|-5--5-(5)--5-5--5-(5)--5-|-8-8-8-8-8-8-8-8-8-8-8-8-||
|-5--5-(5)--5-5--5-(5)--5-|-8-8-8-8-8-8-8-8-8-8-8-8-||
|
|-------------------------|-------------------------||
|-------------------------|-------------------------||
|-3-----------------------|-7-----------------------||
|-x-----------------------|-x-----------------------||
|-1-----------------------|-5-----------------------||
|-------------------------|-------------------------||


   Interlude
    &
    D5                           N.C.   D5N.C.
    Gtrs I, II
    PM-------------------------|        PM
||------------------------|--------------------|
||o-----------------------|--------------------|
||------------------------|--------------------|
||------------------------|------3--6-----5--3-|
||o-0--0-0-0-0-0--0-0-0-0-|-0--0-x--x---0-x--x-|
||--0--0-0-0-0-0--0-0-0-0-|-0--0-3--6---0-5--3-|


  1.
  D5                       N.C.   D5N.C.
  PM---------------------|        PM
|-------------------|---------------------||
|-------------------|--------------------o||
|-------------------|---------------------||
|-------------------|------3--6-----5--3--||
|-0--0--0--0--0--0--|-0--0-x--x---0-x--x-o||
|-0--0--0--0--0--0--|-0--0-3--6---0-5--3--||


  2.
  D5                       N.C.   D5N.C.
  Gtr I
  PM---------------------|        PM
|-------------------|----------------------------||
|-------------------|----------------------------||
|-------------------|----------------------------||
|-------------------|------3--6------5---------3-||
|-0--0--0--0--0--0--|-0--0-x--x---0--x---------x-||
|-0--0--0--0--0--0--|-0--0-3--6---0--5---------3-||
|
| Gtr II
| PM---------------------|        PM
|-------------------|---------------10b12-(10)---||
|-------------------|----------------------------||
|-------------------|----------------------------||
|-------------------|------3--6------------------||
|-0--0--0--0--0--0--|-0--0-x--x---0--------------||
|-0--0--0--0--0--0--|-0--0-3--6---0--------------||


 Guitar Solo
  D5                                 N.C.   D5N.C.
   PM------------------------------|        PM
|----------------------------|---------------------|
|----------------------------|---------------------|
|----------------------------|---------------------|
|----------------------------|-------3--6-----5--3-|
|--0------0-0-0-0-0--0-0-0-0-|--0--0-x--x---0-x--x-|
|--0------0-0-0-0-0--0-0-0-0-|--0--0-3--6---0-5--3-|
|
|                               ~~
|----------------------------|---------------------|
|-13b15======================|=13------------------|
|----------------------------|---------------------|
|----------------------------|---------------------|
|----------------------------|---------------------|
|----------------------------|---------------------|


  D5                                            N.C.   D5N.C.
   PM-----------------------------------------|        PM ~~~
|------------------------------------|-------------------------|
|------------------------------------|-------------------------|
|------------------------------------|-------------------------|
|------------------------------------|----------3--6-----------|
|--0-----0-----0-----0--0-------0----|--0-----0-x--x---0-------|
|--0-----0-----0-----0--0-------0----|--0-----0-3--6---0-[5]---|
|
|     T     T     T                     ~~~~~
|------------------------------------|-------------------------|
|-13-17p13-17p13-17p13r===(13)-13p10-|-13b15-------------------|
|------------------------------------|-------------------------|
|------------------------------------|-------------------------|
|------------------------------------|-------------------------|
|------------------------------------|-------------------------|


  D5                                             N.C.           D5 N.C.
   PM-----------------------------------------|                  PM
|-------------------------------------|-------------------------------------|
|-------------------------------------|-------------------------------------|
|-------------------------------------|-------------------------------------|
|-------------------------------------|-----------3-----6-----------5-----3-|
|--0-----0--0--0--0--0-----0--0--0--0-|--0-----0--x-----x--------0--x-----x-|
|--0-----0--0--0--0--0-----0--0--0--0-|--0-----0--3-----6--------0--5-----3-|
|
|----------17----------------17-------|----------15----------------15-------|
|-------18----18----------18----18----|-------17----17----------17----17----|
|----19----------19----19----------19-|----17----------17----17----------17-|
|-19----------------19----------------|-17----------------17----------------|
|-------------------------------------|-------------------------------------|
|-------------------------------------|-------------------------------------|


  D5                                             N.C.           D5 N.C.
   PM-----------------------------------------|                  PM ~~~
|-------------------------------------|--------------------------------------|
|-------------------------------------|--------------------------------------|
|-------------------------------------|--------------------------------------|
|-------------------------------------|-----------3-----6--------------------|
|--0-----0-----0-----0-----0-----0----|--0-----0--x-----x--------0-----------|
|--0-----0-----0-----0-----0-----0----|--0-----0--3-----6--------0-[5]-------|
|
|----------19----------------19-------|----------17----------------17--------|
|-------20----20----------20----20----|-------18----18----------18-----18----|
|----21----------21----21----------21-|----19----------19----19-----------19-|
|-21----------------21----------------|-19----------------19-----------------|
|-------------------------------------|--------------------------------------|
|-------------------------------------|--------------------------------------|


  D5                                      N.C.   D5N.C.
   PM-----------------------------------|        PM
|------------------------------|------------------------|
|------------------------------|------------------------|
|------------------------------|------------------------|
|------------------------------|----------3--6-----5--3-|
|--0--0-0-0-0---0------0-0-0-0-|--0-----0-x--x---0-x--x-|
|--0--0-0-0-0---0------0-0-0-0-|--0-----0-3--6---0-5--3-|
|
|                                 ~~~~~
|-18----------(18)b19----------|-18b19------------------|
|------------------------------|------------------------|
|------------------------------|------------------------|
|------------------------------|------------------------|
|------------------------------|------------------------|
|------------------------------|------------------------|


  D5                                       N.C.   D5N.C.
   PM------------------------------------|        PM ~~~
|-------------------------------|-------------------------|
|-------------------------------|-------------------------|
|-------------------------------|-------------------------|
|-------------------------------|----------3--6-----------|
|--0-----0-----0-----0---0---0--|--0-----0-x--x---0-------|
|--0-----0-----0-----0---0---0--|--0-----0-3--6---0-[5]---|
|
|                                  ~~~~~
|-19-17-15-18-17-15-17--15--12--|-------------------------|
|-------------------------------|-15b17-------------------|
|-------------------------------|-------------------------|
|-------------------------------|-------------------------|
|-------------------------------|-------------------------|
|-------------------------------|-------------------------|


  D5                                   N.C.       D5 N.C.
   PM-------------------------------|              PM
|-----------------------------|-----------------------------|
|-----------------------------|-----------------------------|
|-----------------------------|-----------------------------|
|-----------------------------|--------3----6--------5----3-|
|--0---0-0--0-0--0---0-0--0-0-|--0---0-x----x------0-x----x-|
|--0---0-0--0-0--0---0-0--0-0-|--0---0-3----6------0-5----3-|
|
|-----12---11---17--16---15---|-14--15---16---15--16---17---|
|-11--------------------------|-----------------------------|
|-----------------------------|-----------------------------|
|-----------------------------|-----------------------------|
|-----------------------------|-----------------------------|
|-----------------------------|-----------------------------|


                                          D.S.S. al Dbl. Coda
  D5                                     N.C.              D5N.C.
   PM---------------------------------|                    PM ~~~
|-----------------------------|------------------------------------||
|-----------------------------|------------------------------------||
|-----------------------------|------------------------------------||
|-----------------------------|-----------3-----6------------------||
|--0-----0--0----0------0--0--|--0-----0--x-----x----------0-------||
|--0-----0--0----0------0--0--|--0-----0--3-----6----------0-[5]---||
|
|                ~~~~~~~                            ~~~~~~~
|-17b20--------(17)b20--------|----13-17-20-17-20-(20)b22----------||
|-----------------------------|-15---------------------------------||
|-----------------------------|------------------------------------||
|-----------------------------|------------------------------------||
|-----------------------------|------------------------------------||
|-----------------------------|------------------------------------||


 Outro
  &&
  D5                         Bb5
|--------------------------|--------------------------|
|--------------------------|--------------------------|
|--------------------------|--------------------------|
|-0--0-(0)--0--0--0-(0)--0-|-8--8-(8)--8--8--8-(8)--8-|
|-0--0-(0)--0--0--0-(0)--0-|-8--8-(8)--8--8--8-(8)--8-|
|-0--0-(0)--0--0--0-(0)--0-|-8--8-(8)--8--8--8-(8)--8-|
|
|--------------------------|--------------------------|
|--------------------------|--------------------------|
|-------------10-----------|-9-----------14-----------|
|-0------------x-----------|-x------------x-----------|
|-0------------8-----------|-7-----------12-----------|
|-0------------------------|--------------------------|


  G5                         Bb5
|--------------------------|--------------------------|
|--------------------------|--------------------------|
|--------------------------|--------------------------|
|--5--5-(5)--5-5--5-(5)--5-|--8-8-8-8-8-8-8-8-8-8-8-8-|
|--5--5-(5)--5-5--5-(5)--5-|--8-8-8-8-8-8-8-8-8-8-8-8-|
|--5--5-(5)--5-5--5-(5)--5-|--8-8-8-8-8-8-8-8-8-8-8-8-|
|
|--------------------------|--------------------------|
|--------------------------|--------------------------|
|-12-----------------------|-10-----------------------|
|--x-----------------------|--x-----------------------|
|-10-----------------------|--8-----------------------|
|--------------------------|--------------------------|


  G5                         F5      E5
|--------------------------|--------------|
|--------------------------|--------------|
|--------------------------|--------------|
|--5--5-(5)--5-5--5-(5)--5-|--3------2----|
|--5--5-(5)--5-5--5-(5)--5-|--3------2----|
|--5--5-(5)--5-5--5-(5)--5-|--3------2----|
|
|--------------------------|--------------|
|--------------------------|--------------|
|-12-----------------------|-10------9----|
|--x-----------------------|--x------x----|
|-10-----------------------|--8------7----|
|--------------------------|--------------|


  D5
|--------------|--------*|
|--------------|--------*|
|--------------|--------*|
|-0------------|-(0)----*|
|-0------------|-(0)----*|
|-0------------|-(0)----*|
|
|--------------|--------*|
|--------------|--------*|
|-7------------|-(7)----*|
|-x------------|--------*|
|-5------------|-(5)----*|
|--------------|--------*|
Comments