Atreyu - Bleeding Mascara Chords & Tabs

 

Bleeding Mascara Chords & Tabs

Atreyu Chords & Tabs

Version: 5 Type: Tab 0 ratings
1 star 2 stars 3 stars 4 stars 5 stars
comments

Bleeding Mascara Tab

Atreyu bleeding mascara
great band that deserves much credit
heres my tab hope you enjoy
(CGCFAD) low to high

(1st Guitar)
D---------------------------------------------------|
A--------------------------------11-10-8-10-8-------|
F------7-10-9-10-7---7-10-9-10-7--------------10- --|
C----7-------------7--------------------------------|
G---------------------------------------------------|
C---------------------------------------------------|

D---------------------------------------------------|
A--------------------------------9/11-8-10-b8-------|
F------7-10-9-10-7---7-10-9-10-7--------------------|
C----7-------------7--------------------------------|
G---------------------------------------------------|
C---------------------------------------------------|

D---------------------------------------------------|
A---------------------------------11-10-8-10-8------|
F------7-10-9-10-7---7-10-9-10-7---------------10- -|
C----7-------------7--------------------------------|
G---------------------------------------------------|
C---------------------------------------------------|

D----------------------------------------------------|
A----------------------------------------8-10-11-b10-|
F------7-10-9-10-7---7-10-9-10-7--7-9-10-------------|
C----7-------------7---------------------------------|
G----------------------------------------------------|
C----------------------------------------------------|
[ Tab from: http://www.guitartabs.cc/tabs/a/atreyu/bleeding_mascara_tab_ver_5.html ]
D---------------------------------------------------|
A---------------------------------11-10-8-10-8------|
F------7-10-9-10-7---7-10-9-10-7---------------10- -|
C----7-------------7--------------------------------|
G---------------------------------------------------|
C---------------------------------------------------|

DD----------------------------------------------------|
A--------------------------------9/11-8-10-b8---------|
F------7-10-9-10-7---7-10-9-10-7----------------------|
C----7-------------7----------------------------------|
G-----------------------------------------------------|
C-----------------------------------------------------|

D---------------------------------------------------------------------------|
A---------------------------------11-10-8--10-8----8------------8------8----|
F------7-10-9-10-7---7-10-9-10-7---------10----10-9-7-9-10---10--9---10-9-7-|
C----7-------------7--------------------------------------------------------|
G---------------------------------------------------------------------------|
C---------------------------------------------------------------------------|

(2nd guitar)
(p.m.)......................................................................
D----------------------------------------------------------------------------|
A----------------------------------------------------------------------------|
F----------------------------------------------------------------------------|
C-0-0-0-0-0-0-0-0-0-0-0-0-0-0-0-3-6-5-5-5-5-5-5-5-5-5-5--8-8-8-8-8-8-8-8-8-8-|
A-0-0-0-0-0-0-0-0-0-0-0-0-0-0-0-3-6-5-5-5-5-5-5-5-5-5-5--8-8-8-8-8-8-8-8-8-8-|
C-0-0-0-0-0-0-0-0-0-0-0-0-0-0-0-3-6-5-5-5-5-5-5-5-5-5-5--8-8-8-8-8-8-8-8-8-8-|
Comments